PrimaNota.ru - самый крупный в мире бесплатный архив песенных текстов, аккордов, табулатур и нот


Joe Pass - Pasta Blues - таба, видео

Регистрация Запомнить меня
Войти через:  Facebook Google Twitter Vk Yandex Mail.ru

Joe Pass - Pasta Blues - таба, видео

Печатать
Просмотров: 167
                                  Pasta Blues                                   


                                                                        Joe Pass
ES-175



                                                 ^                              
     E  E  Q    Q    Q       Q    E  E  E  E  E  E     E  E  E  E  E  E  E  E   
E||-----------------------|-------------------------|--------------------------|
B||-----1-------1---------|--1-------1-----4--------|-----1-----1--------------|
G||--------3---------3----|-------3-----------------|--------3-----3--0--------|
D||-----------------------|-------------------------|--------------------3-----|
A||-----------------------|----------------------3--|-----------------------3--|
E||-----------------------|-------------------------|--------------------------|


                 >     ^                              
  E  E  E  E  E  E  E  E     E  E  E  E  E  E  E  E   
--------------------------|--------------------------|
--------------------------|-----1--------1--1--------|
-----------------3-----2--|--L-----3--3--------3--3--|
--1--------------2-----1--|--L-----------------------|
--------1--3--------------|--------------------------|
-----3-----------2-----1--|--L-----------------------|


  E  E  E  E  E  E  E  E     E  E  E  E  E  E  E  E   
--------------------------|--------------------------|
--1-----1-----1--4--------|-----1-----1--------------|
-----3-----3--------------|--------3-----3--0--------|
--------------------------|--------------------3-----|
--------------------1--2--|--3--------------------3--|
--------------------------|--------------------------|


                    >  ^                                   
  E  E  E  E  E  E  E  E     E  E  E  E   S  S  S S E  E   
--------------------------|-------------------------------|
--------------------------|--------4--6h--7p-6p-4---6--4--|
--------------------6--5--|--L--5-----------------5-------|
--1-----------------5--4--|--L----------------------------|
--------1--3--L-----------|-------------------------------|
-----3-----------0--5--4--|--L----------------------------|


                                                                       >    ^   
  E  E  E  E  E  E  E  E     E  E  E  E   E  E  E  E     E  E  E  Q    Q    E   
--------------------------|---------------------------|----------------4----3--|
--------------------------|-----------4h--8--6--4-----|----------------4----3--|
--5--3--------------------|--------5---------------5--|--6--5-----4----4----3--|
--------5--3--1-----------|-----5---------------------|--5--4-----3----3----2--|
--------------------1--2--|--3------------------------|----------------4----3--|
-----------------3--------|---------------------------|--6--5-----3------------|


                                                       ^                     
                                           |--3--|                           
  E  E  Q    Q    Q       Q    E  E  E  E  E  E  E     E  E  Q    Q    Q     
--L--------------------|----------------------------|-----------------------|
--L--1-------1---------|--1-------1-----4-----------|-----1-------1---------|
--L-----3---------3----|-------3--------------------|--------3---------3----|
--L--------------------|----------------------------|-----------------------|
--L--------------------|----------------------1--2--|--3--------------------|
-----------------------|-------------------3--------|-----------------------|


                    >  ^                                                     
  E  E  E  E  E  E  E  E     E  E  Q    Q    Q       Q    E  E  E  E  E  E   
--------------------------|-----------------------|-------------------------|
--4--1--------------------|-----1-------1---------|--1-------1-----3--------|
--------3--1--------3--2--|--L-----3----2----3----|--2----3--2-----2-----5--|
--------------3-----2--1--|--L----------1---------|--1-------1-----1-----5--|
--------------------------|-----------------------|----------------------5--|
-----------------0--2--1--|--L----------1---------|--1----L--1-----3--------|


                                                        >                       
  E  E  E  E  E  E  E  E     E  E  E  E  E  E  E  E     E  E  E  E  Q    E  E   
--------------------------|--------------------------|-------------------------|
-----1--4--4--1-----------|--------------------------|-------------------3-----|
--L--------------0--------|-----------------------3--|-----5--5-----5-------5--|
--L-----------------3--1--|--2-----------1--3--5-----|-----4--4-----4----------|
--L-----------------------|--------1--3--------------|-------------------------|
--------------------------|-----3--------------------|--5--------4-------------|


  |--3--|                                                  
  E  E  E    E  E  E  E  E  E     E  E  E  E  E  E  E  E   
-------------------------------|--------------------------|
--8--6--4----------------------|--------------------------|
-----------5g3-----------------|-----------5-----5-----5--|
----------------5--3--1--------|-----3--5-----4-----3-----|
-------------------------3--1--|--3-----------------------|
-------------------------------|--------------------------|


                                   >     ^               
  E  E  E  E  E  E  E  E     Q     Q     E   E   E   E   
--------------------------|--------------8--10--11--10--|
--------------------------|-------10----10--------------|
-----5-----5-----5-----5--|--3-----9-----9--------------|
--2-----1-----0-----------|--------8-----8--------------|
--------------------4-----|--3--------------------------|
--------------------------|-----------------------------|


                      >                                    
                      |-3-|                                
  E   E   E  E  E  E  S S S E     E  E  E  E  E  E  E  E   
--8-------------------7-8-7-5--|--------------------------|
--8--10------------7-----------|--8--------6--5-----------|
--6------10--7--8--------------|--------5--------7--5--4--|
--7---L---L--L-----------------|-----5--------------------|
-------------------------------|--------------------------|
-------------------------------|--------------------------|


                 >             >     >     >     >   
  E  E  E  E  E  E  Q       E  E  E  E  E  E  E  E   
-------------------------|--------------------------|
-----------------4-------|--1-----3-----4-----3-----|
--3--------------3-------|--2-----2-----2-----2-----|
--------3-----2----------|-----1-----1-----1-----0--|
-----5-----5-------------|--------------------------|
--------------------2----|--1--L--1--L--1--L--1-----|


                                >                        
  E  E  E  E   E  E  E   E      E  E  E  E  E  E  E  E   
-----------------------------|--------------------------|
--1--3--L--4------3--L-------|--1--------------5--6--7--|
--2--2--L--2------2--L--(0)--|--0--0--5--7--8-----------|
--1--1--L--1------1--L--(0)--|--2-----------------------|
-----------------------------|--------------------------|
--1-----1--Ls--2-----2--(0)--|--3-----------------------|


  |---3---|                                                 
  E   E   E   E  E  E  E  E  E     E  E  E  E  E  E  E  E   
--------------------------------|--------------7-----5-----|
--8p--7p--6p--5-----------------|-----------5--5-----5-----|
-----------------7--6-----------|--------5-----5--0--5-----|
-----------------------8--7--5--|--4--7--------4-----4--0--|
--------------------------------|--------------------------|
--------------------------------|--------------------------|


  E  E  E  E   E  E  E  E     E  S  S  S  S E  E  E  E  E   
-----5---------------------|-------------------------------|
--8-----6--8--/5-----------|-----3h-4p-3p-1----------------|
--5-----------/4--5--------|----------------3--0-----------|
--7-----------/3-----5--3--|--2-------------------3--1-----|
--5------------------------|----------------------------3--|
---------------------------|-------------------------------|


                                                      >   
  E  E  E  E  E  E  E  E     E  E  S  S  S S E  E  E  E   
--------------------9--9--|--8--6------------------------|
--------------8-----------|--------8p-6p-4---6--4-----5--|
--------6-----------6--6--|--5-------------5-------5--6--|
--5--------------5--------|---------------------------6--|
-----------4--------------|---------------------------5--|
-----3--------------------|------------------------------|


  ^                        >     ^                            
  E  E  S  S  S S E  E  E  E     E  E  S  S  S S E  E  E  E   
------------------------------|------------------------------|
--6-----8p-6p-4---6--4-----7--|--8-----8p-6p-4---6--4--------|
--7--5----------5-------5--6--|--7--5----------5-------5--3--|
--7------------------------7--|--8---------------------------|
--6------------------------6--|--7---------------------------|
------------------------------|------------------------------|


                 >  >  ^                              >   
  E  E  E  E  E  E  E  E     E  E  S  S  S S E  E  E  E   
-----------------6--7--8--|---------------------------7--|
-----------------6--7--8--|--------8p-6p-4---6--4-----7--|
-----------------6--7--8--|-----5----------5-------5--7--|
--5--3-----------5--6--7--|---------------------------6--|
--------6--3-----6--7--8--|---------------------------7--|
--------------------------|------------------------------|


  ^                        >     ^                            
  E  E  S  S  S S E  E  E  E     E  E  S  S  S S E  E  E  E   
--8---------------------------|------------------------------|
--8-----8p-6p-4---6--4-----7--|--8-----8p-6p-4---6--4--------|
--8--5----------5-------5--6--|--7--5----------5-------5--3--|
--7------------------------7--|--8---------------------------|
--8------------------------6--|--7---------------------------|
------------------------------|------------------------------|


           >     >  ^       >                             
  E  E  E  E  E  E  Q       E  E  E   E   E   E   E   E   
-------------------------|-----5--8--12--15--13--12--10--|
-----------------5-------|--5--------10--13--13--10--10--|
-----------------3-------|--6--------10--13--13--10--10--|
--5--3-----------5-------|--7----------------12---9------|
--------6--3--------4----|--5----------------------------|
-------------------------|-------------------------------|


  E  E  E  E  E  E  E  E     E  E  E  E  E  E  E  E   
--9--7--6--4--3-----------|--------------------------|
--7--7--4--------6--4--5--|--------------------------|
--7--7--4-----------------|--5-----3--3--2--2--1--1--|
--6-----3-----------------|--------------------------|
--------------------------|--------------------------|
--------------------------|-----0--0--0--1--1--2--2--|


  >                             >                             
              |--3--|                                         
  E  E  E  E  E  E  E  E  E     E  E   S  S  S S E  E  E  E   
-----------3-----------------|-------------------------------|
--------4-----5--------------|-----3h--4p-3p-1---------------|
--0-----3--------5-----------|-----------------3-0-----------|
-----0--2-----------5--3--1--|--2-------------------3--1-----|
-----------------------------|----------------------------3--|
--3--------------------------|-------------------------------|


                                                     >   
  E  E  E  E  E  E  E  E     E  E  E  E    E   E  E  E   
-----------------2--5--4--|--3--------3-----------------|
-----------1--4-----------|--------6-----6g5p--3--------|
--------2-----------------|-----5-----------------5--4--|
--1--4--------------------|-----------------------------|
--------------------------|-----------------------------|
--------------------------|-----------------------------|


              ^                                          
  E  E  E  E  E  E  E  E     E  E  E  E  E  E   E   E    
-----------5--8--4--------|--1-----3--5--L--8--10-------|
-----3--6-----------5-----|--3---------------------(0)--|
--3-----------5--------5--|--2---------------------(0)--|
--------------------------|-----1-----------------------|
--------------------------|-----------------------------|
--------------------------|-----------------------------|


                        >       >             >                
   E   E   E  E  E  E   Q       E   E  E   E  E  E   S  S  E   
--11--10p--9--8--------------|---------8------------10p-8-----|
---9---9------8--------11----|--8--10-----10--8--8--------10--|
---9---9------8-----x---8----|--7-------------6---------------|
--/8-------8-----7--x---9----|--8-------------7---------------|
------------------------8----|--7-------------6---------------|
-----------------------------|--------------------------------|


       >                    >            >       >       
  Q    E  E  E  E  E  E     E  E  E  E   E   E   E   E   
-------8-----------6-----|--------5--8--12--12--13--13--|
--8----------7-----------|--5--6--------10--10--11--11--|
--7----------6-----------|--5-----------10--10--11--11--|
--6----------5-----------|--5-----------10------10--10--|
----------0-----0-----0--|--5---------------------------|
-------------------------|------------------------------|


   ^                            >     >                   
   E  E  E  E  E  E   E   E     E  E  E   E  E  E  E  E   
--12--8-----------8--11--12--|--3--3---------------------|
--10-----8--7--6------7---8--|--------6p--5--------------|
--10--------5--4-------------|---------------5-----------|
---9--------6--5-------------|------------------5--4-----|
-----------------------------|------------------------0--|
-----------------------------|---------------------------|


         |---3--|  |---3--|                                     
  E   E  E   E  E  E   E  E  E  E     E  E   E  E  E  E  E  E   
----------------3------------------|---------------------------|
---------4s--5-----5p--1-----------|-----4--/4-----4--4--------|
---------3s--4------------0--------|-----3--/3-----2--3--------|
--3p--0--2s--3---------------3--1--|--2--2--/2-----2--2--------|
-----------------------------------|------------3--------------|
-----------------------------------|---------------------3--2--|


                    |--3--|                       |--3--|   
  E  E  E  E  E  E  E  E  E     E  E  E  E  E  E  E  E  E   
-----------------------------|-----------------------------|
-----4--4-----4--4-----------|-----4--4-----4--4-----------|
-----2--2-----1--2-----------|-----3--3-----2--3-----------|
-----1--1-----1--1-----------|-----2--2-----2--2-----------|
-----------------------1--2--|--3--------3-----------1--2--|
--1--------2--------3--------|--------------------3--------|


                                             >   ^                      
  |--3--|  |--3--|  |--3--|                                   |--3--|   
  E  E  E  E  E  E  E  E  E   S   E.     E   E   E  E   E  E  E  E  E   
--2--------5--------8--------11p-10---|--8--11--11--8--11--8-----------|
-----2--------5--------8------9-------|--8---8---8--8---8--8-----------|
--------3--------6--------9---9-------|--8---8---8--8---8--8-----------|
--------------------------------------|--7---7---7--7---7--7-----------|
--------------------------------------|--------------------------6--7--|
--------------------------------------|-----------------------8--------|


     >  ^                                   >   ^                
                     |---3---|                                   
  E  E  E   E  E  E  E    E  E      E   E   E   E  E  E   E  E   
-----8--8------8--8----------8--|--11--12--11--12--8------------|
-----8--8--11--8-----8h--10-----|---------------------8---------|
-----8--8------8----------------|--11--12--11--12--------10--8--|
-----7--7------7----------------|-------------------------------|
--8-----------------------------|-------------------------------|
--------------------------------|-------------------------------|


                             >                              
  E  E  E  E  E  E  E  E     E  E  E  E  E  E  S   S  S  S  
-----------------5--8--5--|--8-----------------------------|
--------------------------|--5--------------5--8h-10p-8p-5-|
--9-----7--5--6-----------|--6-----5-----5-----------------|
--------6--4--5-----------|-----7-----7--------------------|
--------------------------|--------------------------------|
-----0--6--4--5-----------|--------------------------------|


                                                  |---3---|   
  E  E  E  E  E  E  E  E     E  E  E  S  S  E  E  E   E   E   
--------------------------|--------------------6-------------|
--6--8--4--5--------------|--------4--6h-7h-8-----8p--6p--4--|
--------------5-----------|-----5----------------------------|
-----------------5--------|----------------------------------|
--------------------8--6--|--7-------------------------------|
--------------------------|----------------------------------|


  E  E  E  E  E  E  E  E     E  E  E  E  E  E  E  E   
--------------------------|--------------------------|
--6--4--------------------|--------------------------|
--------5--3--------------|--------------------5-----|
--------------5--3--1--2--|--------2-----5--------3--|
--------------------------|--3--------------3--------|
--------------------------|-----0-----3--------------|


  E  E  E   E  E  E   E  E      E   E   E   E  E  E  E  E   
--------5------8-----10-----|--11------10------8-----5-----|
--6-------------------------|------------------------------|
-----2-----/5-----7------8--|---L--------------------------|
--L-------------------------|------12------10-----8-----5--|
----------------------------|------------------------------|
----------------------------|------------------------------|


                                           >  ^            
  E  S  S  E  E  E  E  E  E     E   E   E  E  E  E  E  E   
-----------------------------|----------------------------|
--8--7p-6p-4-----6--4--------|----------------------------|
--------------5--------5--3--|--2--(0)--3--4--5-----3--0--|
--L--------------------------|----------1--2--3--0-----0--|
-----------------------------|----------------------------|
-----------------------------|--1-------3--4--5-----2-----|


                                               |--3--|            
  E  E  E  E  E  S  S  S  S  E     E  E  E  E  S  S  S  E  E  E   
-----------1--2--5p-4h-5p-4p-2--|--3--8--6--4--------------------|
-----1--4-----------------------|--------------6h-7p-6p-4--6--5--|
--2-----------------------------|--------------------------------|
--1-----------------------------|--------------------------------|
--------------------------------|--------------------------------|
--1-----------------------------|--------------------------------|


                    >        ^                        
  E  E  E  E  E  E  E  E     E  E  E  E  E  E  E  E   
--------------------8-----|--5--8--5-----8-----------|
--------------------6-----|--5-----------------------|
--5-----------------6-----|--5-----------------5-----|
-----5--------------5-----|--------------7-----4-----|
--------8--6--7--0-----6--|--5-----------------------|
--------------------------|-----------------4-----3--|


  E  E  E  E  E  E  E  E     E  E  E  E  E  E  E  E   
-----3--------------------|--------------------------|
--5-----6--5--------------|--------------------------|
--4-----5--4--5-----------|--------------------------|
--3-----4--3-----5--3--1--|--2--2--3--3--4--4--5--5--|
--------------------------|--------------------------|
--L-----------------------|--0--0--1--1--2--2--3--3--|


                                      >  ^         >      
  E  E  E  E  E  E  E  E     E   E    E  E  E  E   E  E   
--------------------------|------------------------------|
--------------------------|----------10--8---------------|
--------------------------|----------10--8--------10-----|
--6--6--7--7--8--8--9-----|-----(0)--10--8-----8--10-----|
--------------------------|-----------------------10-----|
--4--4--5--5--6--6--7--7--|--8--------------8------------|


           >  ^     >   ^                 >  ^                  
   E   E   E  E  E  E   E  E     E   E    E  E  E  E   E   E    
------------------------------|--------------------------------|
----------10--8-----8---------|----------10--8-----------------|
----------10--8--------10-----|----------10--8--------10-------|
--(8)--8--10--8-----8--10-----|----------10--8-----8--10--(0)--|
---8-------------8-----10--x--|-----------------------10-------|
------------------------------|--8--(8)---------8--------------|


           >  ^     >   ^                  >  ^           >      
  E   E    E  E  E  E   E  E     E    E    E  E  E   E    E  E   
------------------------------|---------------------------------|
----------10--8--------10-----|-----------10--8-----------------|
----------10--8--------10-----|-----------10--8----------10-----|
-----(0)--10--8-----8--10-----|-----(10)--10--8-----(8)--10-----|
---------------------------9--|--8---------------8---8---10-----|
--8--------------8------------|------------------------------8--|


         >  ^         >                  >  ^           >        
  E  E   E  E  E  E   E  E     E    E    E  E  E   E    E   E    
----------------------------|-----------------------------------|
--------10--8---------------|-----------10--8-------------------|
--------10--8--------10-----|-----------10--8----------10-------|
--------10--8-----8--10-----|-----(10)--10--8-----(8)--10--(0)--|
--8------------8-----10-----|-----------10-----8-------10-------|
-----x-------------------7--|--8--------------------------------|


           >  ^     >           ^                        >   
                                                   |--3--|   
  E   E    E  E  E  E  E  E     E  E  E  E  E  E   E  E  E   
--------------------8--------|--5---------------------5--8--|
----------10--8-----6--------|--5--------5--8--5h--6--------|
----------10--8-----6-----0--|--5-----5---------------------|
-----(0)--10--8-----5--------|--7--7------------------------|
-----------------0-----0-----|--5---------------------------|
--8--------------------------|------------------------------|


    ^                                                         
                 |--3--|                                      
    E   E  E  E  S  S  S  S S E  E     Q    E  E  Q    E  E   
--/13--11--8------------------------|------------------------|
--------------8--6h-7p-6p-4---6--8--|-------5----------6-----|
----------------------------5-------|--5----------7----------|
------------------------------------|----------5----------8--|
------------------------------------|------------------------|
------------------------------------|------------------------|


  Q    E  E  E  E  E  E     E  E  E  E  E  E  E  E     E  E  E  E  E  E  E  E   
-------------3-----6-----|--8-----5-----3-----------|--------------------------|
-------4-----------4-----|--3-----3-----3-----1-----|--4--3--1-----------------|
--5----------------4-----|--3-----3-----3-----------|--2--------2--0-----------|
----------6--------3-----|--------------------3-----|--1--------------3--1--2--|
----------------4-----3--|-----3-----3--------------|--------------------------|
-------------------------|-----------------2-----1--|--L-----------------------|


                             |-3-|                       
  E  E  E  E  E  E  E  E     S S S E  E  E  E  E  E  E   
-----------------------5--|--3-5-3-------3--------------|
-----------3--5--6--7-----|--------5--6-----5--3--------|
-----2--5-----------------|-----------------------5--3--|
--5-----------------------|-----------------------------|
--------------------------|-----------------------------|
--------------------------|-----------------------------|


        |--3--|  |--3--|  |--3--|     |--3--|   |--3--|   |--3--|   |---3--|   
  E  E  E  E  E  E  E  E  E  E  E     E  E  E   E  E  E   E  E  E   E   E  E   
-----------------------------------|------------------------------------------|
-----3--------3--------4--------5--|--------6---------7---------8----------9--|
--2--------4--------5--------6-----|-----7---------8---------9---------10-----|
--------5--------6--------8--------|--9--------10--------11--------12---------|
-----------------------------------|------------------------------------------|
-----------------------------------|------------------------------------------|


  |---3--|  |--3--|  |--3--|  |--3--|                              
  E  E   E  E  E  E  E  E  E  E  E  E     E  E  E  E  E  E  E  E   
---------------------------------------|-----------------8--5-----|
--8---------7--------6--------5--------|--4--5--6--7--8--------6--|
-----9---------8--------7--------6-----|--------------6-----------|
--------10--------9--------8--------7--|--------------5-----------|
---------------------------------------|--------------0-----------|
---------------------------------------|--------------------------|


                >   ^                                          
  E  E  E  E    E   E   E   E      E  E  E  E  E  E    E   E   
--------5--8s--12--13--14--15--|--12--8--5--3-----------------|
--5--6---------10--11--12--13--|--10--8--5-----4--1p---0------|
--5------------10--11--12--13--|--10--7--5-----3--------------|
----------------9--10--11--12--|---9--7--3-----2------(0)--3--|
--5----------------------------|------------------------------|
-------------------------------|------------------------------|


                        >     ^                 >       ^                       
   E  E  E  E  E  E  E  E     Q    E  E   E  E  Q       Q    E  E  E  E  E  E   
---------------------------|-----------------3--5----|--3----------------------|
------4--4--4--1--1--------|-------6--4s--5-----4----|--3----4--1-----------1--|
------------------------3--|--0----5--3s--4-----4----|--3----4--3-----3-----3--|
--/2-----------------------|--0----4--2s--3-----3----|--2----3--2-----2-----2--|
---------------------------|--------------------4----|--3----4-----------------|
------0-----0--1--1--2--2--|--3----------------------|-------------2-----2-----|


                                          |---3--|         
  E  E  E  E  E  E  E  E     E  E  E  E   E   E  E  E  E   
--------7--8--5-----------|--3-----2--3-------------------|
-----0--7--8-----7--4-----|--3-----2------6p--4-----6--4--|
--2--0--7--8-----------5--|--------2-------------5--------|
--1-----6--7--------------|--2--2--1----------------------|
--------------------------|-------------------------------|
--1-----------------------|-------------------------------|


                      >  ^              >  ^        TP TP TP TP  
                                                 |-3|  |--3--|   
  E  E  E  E  E   E   E  E     E  E  E  E  E  E  E  S  S  S  S   
-----------------(3)--------|--------6--7--8--------8--6--8--8--|
----------------------------|--------6--7--8-----4--6--8--6--6--|
--5-----4--3----------3--2--|--2-----6--7--8--5-----------------|
--------3--2----------2--1--|--1-----5--6--7--------------------|
-----0--4--3----------------|-----0--6--7--8--------------------|
--------------3-------2--1--|--1--------------------------------|


  TP TP TP TP                          ^                            
                      |--3--|                     |---3---|         
  S  S  S  S  S S S S E  E  E  Q       Q    E  E  E   E   E  E  E   
--8--8--8--8------8-8----8--8--8----|--8---------------------------|
--6--6--6--6--4---6-6-4--6--6--4----|--8-------4--7p--6p--4--------|
------------------------------------|--7----5----------------5-----|
------------------------------------|--8------------------------5--|
------------------------------------|--7---------------------------|
------------------------------------|------------------------------|


                                      >  ^            
  E  E  E  E  E  E  E  E     E  E  E  E  E  E  E  E   
--------------------------|--------------7--5--L--L--|
--------------------------|-----------5--5--L--5--L--|
--------------------------|--------5-----5--L--L--5--|
--3--------------8--7--5--|--4--7--------4-----------|
-----6--7--5--4-----------|--------------------------|
--------------------------|--------------------------|


  >  ^                                                           
                     |--3--|     |--3--|                         
  E  E   E  E  E  E  E  E  E     S  S  S  S S E  E  E  E  E  E   
------------------------------|---------------------------------|
--8--9--10--6--5--3--------1--|--3h-4p-3p-1---------------------|
--5--6---5-----4-----0--2-----|-------------3-0-----------------|
--7--8---7-----3--------------|------------------3--1-----------|
--5--6---5--------------------|------------------------3--1-----|
---------------3--------------|------------------------------3--|


                                        >            >    >   ^               
  E  E  E  E  E  E  E  E     E  E  Q    Q    Q       Q    E   E  E  E  E  E   
--------------------------|-----------------------|--------------------------|
-----------------8--------|-----7--6----7----7----|--7----6---7--------6-----|
-----2-----------7--------|-----6--5----6----6----|--6----4---5--------5-----|
-----1-----------6--------|-----5--4----5----5----|--5----3---4-----0--4--4--|
--------3-----------7-----|--6--6--5----6---------|--------------------5-----|
--1-----------6-----------|------------------5----|--5----3h--4--4-----------|


  >  ^          >                                       
  E  E   E   E  E  E  E  E     E  E  E  E  E  E  E  E   
-------------------------2--|--3--4--2--3--------------|
--7--7---6------7-----4-----|--------------4-----------|
--6--6---5------6--3--------|--------------------6--4--|
--5--5---4------5-----------|--------------------5--3--|
--6-----(5)--5--6-----------|--------------------------|
----------------------------|-----------------5-----3--|


  E  E  E   E   E   E  E   E     E  E  E  E  E  E  E  E   
-----0--8--10--11--12--9--10--|--7--8--4--5--1--2--------|
------------------------------|--------------------4--5--|
--5--0--8--10--11--12--9--10--|--7--8--4--5--1--2--------|
--4---------------------------|--------------------4--5--|
------------------------------|--------------------------|
--4---------------------------|--------------------------|


  E  E  E  E  E  E  E  E     E  E  E  E  E  E  E  E   
--------------------------|--------------------------|
--6--4--3-----------------|-----4-----------4--------|
-----------5--3-----------|-----3-----------3-----3--|
--5--------------6--5--3--|--2--------------------2--|
--------------------------|--------3-----------------|
--------------------------|-----------3--0-----2--L--|


              >     >        >     >     >     >      
  E  E  E  E  E  E  E  E     E  E  E  E  E  E  E  E   
-----------2--------------|-----5-----6--------------|
-----1--4--------8-----9--|--9--------8-----7-----4--|
--2-----4--2-----6--------|-----------7-----7-----6--|
--1--------------7-----6--|--6--5-----6-----6--------|
--------------------------|--------------------7-----|
--1-----------0-----7-----|--6-----0-----6-----------|


  >     ^     >     >        >     >     ^  ^         >                    
  E  E  E  E  E  E  E  E     E  E  E  E  E  Q.        Q    Q    Q    Q     
--------------------------|-----------------8------|--6-------------------|
--------------------------|-----------------7------|--6---------4----4----|
-----6-----5-----4-----3--|-----2-----1-----7------|--6----6----6----6----|
-----5-----4-----3-----2--|-----2-----0-----6------|-------5----5----5----|
--0-----0-----------------|-----------------7------|--6-------------------|
--------------4-----3-----|--2-----1-----0---------|------------5----5----|


  Q    Q    Q    E  E     E  E  E  E  E  E  E  E     E  E  E  E  E  E  E  E   
-----------------8--6--|--------------------------|-----------------8--------|
--4----4----4----7--6--|-----4--------4-----3-----|--4--------------6--------|
--5----5----5----7--6--|-----6--------6-----5-----|--6-----7--6-----6--------|
--5----4----4----6--5--|-----5-----5--5-----4-----|--5--0--6--5-----5-----0--|
-----------------7-----|--6-----6-----6--5--5--5--|--6-----6-----6-----------|
--5----4----5----------|--------------------------|--------------------6-----|


  Q    Q    Q    Q       E  E  E  E  E  S  S E  E     Q    Q    Q    Q     
--6-------------------|----------------------8-----|--6-------------------|
--6----4----4----4----|--4--4-----4-----6h-7-7-----|--6----4----5----5----|
--5----5----5----5----|--5--5-----5-----6h-7-7--7--|--6----5----5----4----|
--4----4----4----4----|--4--4-----4----------------|-------4----4----4----|
----------------------|----------------------7-----|--6---------5----5----|
--4----4----4----4----|--5--5--------4-------------|-------4--------------|


  E  Q    E  E  E  E  E     Q    E  E  E  E  E  E   
-------------------------|----------------3--6--4--|
--4-------4--L-----------|----------1--4-----------|
--4-------3--L-----4-----|--3----1-----------------|
--3-------2--L-----------|-------------------------|
-----3----3--L-----------|-------------------------|
----------------2-----2--|--1----------------------|


                        |---3--|                              
   E  E  E  E  E  S  S  E   E  E     E  E  E  E  E  E  E  E   
--/3------------------------------|--------------------------|
------4-----------6h-7p-6p--4-----|--------------------------|
---------3--2--1---------------6--|--3-----------------------|
----------------------------------|-----6--4-----------------|
----------------------------------|-----------6--4-----------|
----------------------------------|-----------------6--5--4--|


                                 ^                >  ^   
                     |--3--|                             
  E  E  E  E   E  E  E  E  E     Q     E  E  Q    E  E   
------------------3--5--3-----|--8----------------------|
-----5--6--4s--5--------------|--3----------------3--1--|
-----4--5--3s--4--------------|--3----/8--5--L----3--2--|
-----3--4--2s--3--------------|-------------------2--1--|
---------------------------3--|--L----------------------|
--3---------------------------|-------------------2--1--|


                      >  ^                             
  Q     E  E  E   E   E  E     Q     E  E  Q    E  E   
----------------------------|-------------------------|
--L----/4--1--L-------------|-------/4--1--L----------|
--L-------------------2--3--|--L----------------------|
--L-------------------1--2--|--L----------------5--3--|
-----------------(0)--2--3--|--L----------------------|
--L-------------------------|-------------------------|


                        >  ^                       >  ^   
  S  S  S S E  E  E  E  E  E     Q     E  E  E  E  E  E   
------------------------------|--------------------------|
------------------------------|-------/4--1--L-----------|
------------------------3--2--|--L-----------------3--2--|
--4p-3p-1---3--1--------2--1--|--L-----1-----------2--1--|
----------3-------3-----------|--------------------------|
---------------------0--2--1--|--L--------------0--2--1--|


                  >  ^                                      
                                             |--3--|  |3|   
  Q    E  Q    E  E  E     Q     E  E  E  E  S  S  S  S E   
------------------------|----------------------------------|
-------4--1-------------|-------/4--1----------------------|
--L-------2-------4--3--|--L-----------3--0----------------|
--L----1--1-------3--2--|--L-----------------3h-4p-3p-1----|
------------------4--3--|--L----------------------------3--|
--L------------0--------|----------------------------------|


  E  E  E  E  E  E  E  E     E  E  E   E   E   E   E  E   
-----------------------3--|-----5--8--12--15--13--12--8--|
--------------------5-----|--6--------10--13------10--8--|
--------------------3-----|--5--------10--14------10--7--|
--3--1--------------5-----|-----------10--12------10--7--|
--------3--1--3--0--4-----|--5---------------------------|
--------------------------|------------------------------|


  E  E   E  E  E  E  E  E     E  E  E  E  E  E  E  E     Q    Q    Q    E  E   
--5------------3-----------|--------------------------|-------5----8----6--3--|
--5--6p--5-----5-----6-----|--5-----------------------|-------4----3----------|
--3---------7--4-----------|--------3-----2-----1-----|--0----4----3----------|
--3------------3-----------|--------------------------|-------3---------------|
------------------2-----3--|--------------------------|--4----3---------------|
---------------------------|-----0-----1-----2-----3--|-----------------------|


  S  S  S S E  E  E  E  S  S  S S    E  E  E  E  E   E  E   E   
----------------------------------|----------------------------|
--7p-6p-4---6--4------------------|----------------------------|
----------5-------5--3------------|----------------------------|
------------------------5p-4p-3---|--3-------------------------|
--------------------------------6-|-----6--3------------3h--6--|
----------------------------------|-----------6--3h--6---------|


  E   E  E   E  E   E  E   E     E   E   E    E  E  E  E  T  T  T T  
-----------------------3h--6--|--8--10--11p--10--8--6--3------------|
----------------4h--6---------|---------------------------7p-6p-4---|
---------3h--5----------------|-----------------------------------5-|
--3h--5-----------------------|-------------------------------------|
------------------------------|-------------------------------------|
------------------------------|-------------------------------------|


                                                TP     
  E  E  E  E  E  S  S E  E     E  E  Q    Q     Q      
----------------------------|-------------------------|
--6--4----------------------|------------------(3)----|
--------5--3----------------|------------------(3)----|
--------------5--4p-3-1-----|------------------(2)----|
-------------------------3--|--1-----1----2----(3)----|
----------------------------|-----3-------2-----------|


   TP     TP                                   
   Q      H         Q       W                  
-------------------------|-------------------||
--(3)----(3)--------3----|--L----------------||
--(3)----(3)--------3----|--L----------------||
--(2)----(2)--------2----|--L----------------||
--(3)----(3)--------3----|--L----------------||
-------------------------|-------------------||




Duration Legend
---------------
W - whole
H - half
Q - quarter
E - 8th
S - 16th
T - 32nd
X - 64th
. - note dotted
|-n-|  - n-tuplets


Tablature Legend
----------------
L - tied note
x - dead note
g - grace note
(n) - ghost note
> - accentuded note
NH - natural harmonic
AH - artificial harmonic
TH - tapped harmonic
SH - semi harmonic
PH - pitch harmonic
h - hammer on
p - pull off
b - bend
br - bendRelease
pb - preBend
pbr - preBendRelease
brb - bendReleaseBend
\n/ - tremolo bar dip
\n - tremolo bar dive
-/n - tremolo bar Release up
/n\ - tremolo bar inverted dip
/n - tremolo bar return
-\n - tremolo bar Release down
S - shift slide
s - legato slide
/ -  slide into from below or out of upwards
\ -  slide into from above or out of downwards
~ - vibrato
W - wide vibrato
tr - trill
TP - tremolo picking
T - tapping
S - slap
P - pop
< - fade in
^ - brush up
v - brush down
Добавлено: 10.07.2012
Другие материалы по этой песне:

Страница создана 05.03.2012
http://primanota.ru/joe-pass/pasta-blues-chords.htm
Привет, Гость.
Предлагаем пройти революционный курс по гитаре.
Подарок от PrimaNota.Ru, забирай!