PrimaNota.ru - самый крупный в мире бесплатный архив песенных текстов, аккордов, табулатур и нот


Frank Zappa - Advance Romance - текст песни, таба, видео

Регистрация Запомнить меня
Войти через:  Facebook Google Twitter Vk Yandex Mail.ru

Frank Zappa - Advance Romance - текст песни, таба, видео

Печатать
Просмотров: 69
-------------------------------------------------------------------------------
                            Advance Romance - Frank Zappa
-------------------------------------------------------------------------------
Tabbed by: Jacque
E-mail: Imbatman1312@gmail.com

Tuning: Standard

Because this track is improvised live for the most part, this tab is a sort of "ballpark" for
the song.

0:00

e|-3------------------------------|
B|-3------------------------------|
G|-0---/12--10--------------------|
D|-0-----------12-10-8--12--8b----|
A|-2------------------------------|
E|-3------------------------------|

0:13

e|----------------------------------------------------------------------------|
B|----------------------------------------------------------------------------|
G|-----------------------------------/15-12-----------------------------------|
D|------------9-10-12-----10-9--5-----------10-9--10-9--9h10p9p0--/3-3-/8\5---|
A|----------------------------------------------------------------------------|
E|-12\------------------------------------------------------------------------|

0:24

e|------------------------------------------------------|
B|------------------------------------------------------|
G|-----------------0--15-12-----------------------------|
D|--9-10-12---10-9----x------------------------8--------|
A|--------------------x----15--15-14\10---8-10---10~----|
E|------------------------------------------------------|

e|-------------------------------------------|
B|-------------------------------------------|
G|-------------------------------------------|
D|--------------10-12-10-------10------------|
A|--------10-13----------13-10----13-10\8~---|
E|--17\\-------------------------------------|

0:42

e|------------------|
B|-5-----5-5\3---3--|
G|-4-----4-4\2---2--|
D|-2----------------|
A|------------------|
E|------------------|

0:48

e|---------------------------------------------------------------------------------------------|
B|---------------------------------------------------------------------------------------------|
G|---------------------------------------------------------------------------------------------|
D|---------------------------------------------------------------------------------------------|
A|-10-10--8------------------------------------------------13-10------------------------1------|
E|----------10-8-6--10-6--6\3~----2-3~----7-8-10---10-8-7--------8-7--8-7--7h8p7p0-/1h3---3~---|

1:07

e|--------------------------------------------------------------------|
B|--------------------------------------------------------------------|
G|-------------------15-----------------------------------------------|
D|-9--10-12--10-9-5------8-8-5~-----------10-12-------10--------------|
A|----------------------------------10-13-------13-10----13-10-8~-----|
E|--------------------------------------------------------------------|

The Rest of the song is ad-libbed solo or made up of these parts above.

************************************

| /   slide up
| \   slide down
| h   hammer-on
| p   pull-off
| ~   vibrato
| +   harmonic
| x   Mute note
| b   Bend
| pb  Pre-bend
| br  Bend release
| pbr Pre-bend release
| brb Bend release bend

************************************
Добавлено: 08.02.2016
Другие материалы по этой песне:
  • Аккорды и текст

Страница создана 07.03.2012
http://primanota.ru/frank-zappa/advance-romance-chords.htm
Привет, Гость.
Предлагаем пройти революционный курс по гитаре.
Подарок от PrimaNota.Ru, забирай!