PrimaNota.ru - самый крупный в мире бесплатный архив песенных текстов, аккордов, табулатур и нот


Frank Zappa - Cheap Thrills - текст песни, бас-таба, видео

Регистрация Запомнить меня
Войти через:  Facebook Google Twitter Vk Yandex Mail.ru

Frank Zappa - Cheap Thrills - текст песни, бас-таба, видео

Печатать
Просмотров: 71
Уроки эстрадного вокала в Санкт-Петербурге
-------------------------------------------------------------------------------
                         Cheap Thrills - Frank Zappa
-------------------------------------------------------------------------------
Tabbed by: Jacque
E-mail: Imbatman1312@gmail.com

Tuning: Standard

This is the Scott Thunes overdub version rather than the original mix/greasy love songs
version. This one is more easy to find and much more fun to play.

I think this is actually done on double bass or acoustic bass, but it works fine on electric bass.

Slow Intro

   Darling...

G|-----------------------------------------------------------------------------------|
D|-------------------------------------------------------4--------(14)14-12-11-------|
A|----------------4---7-----------------0--4----5---5-------2------------------14----|
E|--------------5---------2---2------2-------------------------0---------------------|

G|----------------------------------------------------------------------------------|
D|-------------------------------------------------------4--------(14)14-12-11------|
A|----------------4---7-----------------0--4----5---5-------2------------------14---|
E|--5----5------5---------2---2------2-------------------------0--------------------|

Verse (Faster than intro)

G|--------------------------|
D|-------------5------------|
A|--------4-7------4--7-7---| X5
E|---5----------------------|

G|-----------------------------|
D|-----------------------------|
A|-----------------------------|
E|--5-5-5---3--3---5--5---3----|

G|--------------------------|
D|-------------5------------|
A|--------4-7------4--7-7---| X3
E|---5----------------------|

G|-----------------------------|
D|-----------------------------|
A|-----------------------------|
E|--5-5-5---3--3---5--5---3----|

Chorus

G|--------------------------|
D|-------------5------------|
A|--------4-7------4--7-7---| X5
E|---5----------------------|

Verse

G|--------------------------|
D|-------------5------------|
A|--------4-7------4--7-7---| X3
E|---5----------------------|

G|-----------------------------|
D|-----------------------------|
A|-----------------------------|
E|--5-5-5---3--3---5--5---3----|

Chorus

G|--------------------------|
D|-------------5------------|
A|--------4-7------4--7-7---| X5
E|---5----------------------|

Verse

G|--------------------------|
D|-------------5------------|
A|--------4-7------4--7-7---| X3
E|---5----------------------|

G|-----------------------------|
D|-----------------------------|
A|-----------------------------|
E|--5-5-5---3--3---5--5---3----|

Chorus

G|--------------------------|
D|-------------5------------|
A|--------4-7------4--7-7---| X4
E|---5----------------------|

Verse

G|--------------------------|
D|-------------5------------|
A|--------4-7------4--7-7---| X3
E|---5----------------------|

G|-----------------------------|
D|-----------------------------|
A|-----------------------------|
E|--5-5-5---3--3---5--5---3----|

G|--------------------------|
D|-------------5------------|
A|--------4-7------4--7-7---| X3
E|---5----------------------|

G|-----------------------------|
D|-----------------------------|
A|-----------------------------|
E|--5-5-5---3--3---5--5---3----|

Chorus

G|--------------------------|
D|-------------5------------|
A|--------4-7------4--7-7---| Repeat to fade
E|---5----------------------|


| /  slide up
| \  slide down
| h  hammer-on
| p  pull-off
| ~  vibrato
| +  harmonic
| x  Mute note
===============================================================================
Добавлено: 08.02.2016
Другие материалы по этой песне:
  • Аккорды и текст

Страница создана 21.04.2012
http://primanota.ru/frank-zappa/cheap-thrills-chords.htm
Привет, Гость.
Предлагаем пройти революционный курс по гитаре.
Подарок от PrimaNota.Ru, забирай!