PrimaNota.ru - самый крупный в мире бесплатный архив песенных текстов, аккордов, табулатур и нот


Frank Zappa - Muffin Man - аккорды и текст, таба, бас-таба, видео

Регистрация Запомнить меня
Войти через:  Facebook Google Twitter Vk Yandex Mail.ru

Frank Zappa - Muffin Man - аккорды и текст, таба, бас-таба, видео

Печатать
Просмотров: 226
Muffin Man
Frank Zappa



Song: Muffin Man
album: Strictly Commercial
Artist: Frank Zappa
Tabbed by: J. Sepko
Metal4480@aol.com

Well, I couldn't find the tabs online for this song so I made myself.
The lyrics are also included.

|--------|      /-----       |-----|  |-----|         /---
|------//      //-----      |\/  |\/        //---
      //      //            ||   ||  ||   ||       //     
     //      //---------    |/////  |/////      //-------
    //      //              ||----|  |-----|     //---------
   //      //               ||       ||         //           
  /-----| |-|             |-| ||       ||        //             
 |------| |-|             |-| ||       ||       |-|             |-|


 Intro:     Play 2x
-----------------------------------|-----------------------------------|
-----------------------------------|-----------------------------------|
-----------------------------------|-----------------------------------|
4-----4/---5-----9----9/---11------|12-----9---------------------------|
2-----2/---3-----7----7/----9------|10-----7---------------------------|
-----------------------------------|-----------------------------------|

                              Riff #2
-----------------------------------|-----------------------------------|
-----------------------------------|-----------------------------------|
-----------------------------------|-----------------------------------|
4-----4/---5-----9----9/---11------|12-----9-----7p-5--7p-5--7p-5--5--7|
2-----2/---3-----7----7/----9------|10-----7---------------------------|
-----------------------------------|-----------------------------------|

then play the intro again 1x

then comes the solo which i'm not going to attempt. Anyone who wants to
tab it out should post it or e-mail it to me.


Добавлено: 15.09.2013
Другие материалы по этой песне:

Страница создана 26.02.2012
http://primanota.ru/frank-zappa/muffin-man-chords.htm
Привет, Гость.
Предлагаем пройти революционный курс по гитаре.
Подарок от PrimaNota.Ru, забирай!