PrimaNota.ru - самый крупный в мире бесплатный архив песенных текстов, аккордов, табулатур и нот


Frank Zappa - Peaches En Regalia - аккорды и текст, таба, бас-таба, видео

Регистрация Запомнить меня
Войти через:  Facebook Google Twitter Vk Yandex Mail.ru

Frank Zappa - Peaches En Regalia - аккорды и текст, таба, бас-таба, видео

Печатать
Просмотров: 135
Peaches En Regalia
Frank Zappa
Intro
Bm
G:-----|------4----------4---4-|-----4---4-------|------------|
D:-4-2-|.---4---4------4---4---|---4---4----4-2-.|------------|
A:-----|.-2-------2--2---------|-2--------------.|-repeat-4x--|
E:-----|-----------------------|-----------------|------------|



Head

Bm A C/G D A F#m
G:--------------|----2-----|---------|----------|-----------|
D:.-----4-----4-|------2---|-5-------|---------.|-----------|
A:.-2-----2-----|-0------4-|-------5-|---------.|-repeat-2x-|
E:--------------|----------|---------|-5---2-0--|-----------|





Bm A/C# Dm C/E
G:-4-4-4--4-4--------|-----2-4-6-|-7-7-7--7-7--------|-----5-7-9-|
D:-------------------|---2-------|-------------------|---5-------|
A:-------------2-2-2-|-4---------|-------------5-5-5-|-7---------|
E:-------------------|-----------|-------------------|-----------|





F Eb/G C# B
G:-10-10-10--10-10-------|------8-10-12-|-10---|-10---|-8----|-8----|
D:-----------------------|----8---------|------|------|------|------|
A:-----------------8-8-8-|-10-----------|------|------|------|------|
E:-----------------------|--------------|----9-|-----9|----7-|----7-|





E F#m
G:----------------6-9-10-11-|-11-11-9-------------------|
D:------------6-9-----------|---------11---11-10-9-8-7--|
A:-7--7-7-7-7---------------|------------9--------------|
E:--------------------------|---------------------------|





E F#m
G:-------------------6-9--7-6---|-6-11-11-10-9----------------|
D:---------------6-9----------9-|--------------11---11-----10-|
A:-7--7-7-7-7--6----------------|-----------------9----9\8----|
E:------------------------------|-----------------------------|





E F#m
G:---------------------|--------------------------|
D:-----6---------------|-----6-7-8-9--7-8-9--9-9--|
A:-7-7-------4-5-6-7-8-|-9-9----------------------|
E:-------4-7-----------|------------------------7-|





E F#m
G:-------------8h9-------------|-----------9----11-10-9---------|
D:---------8h9-----8h9---------|----8-9-11---11---------11-9----|
A:-7--7-7--------------6h7-8-8-|-9---------------------------11-|
E:-----------------------------|--------------------------------|





A G#m A G#m A G#m
G:-------------------|-----------------------------------|----------------|
D:----------12/13----|----14----13--14-------12/13-13-13-|---------12/13--|
A:-12----11-------11/|-12----12--------12\11-------------|-12---11--------|
E:-------------------|-----------------------------------|----------------|





A G#m C D Bb Eb
G:------------|--5--5-5-5-5--6-7--7-7-7-7----|-----------------8-8---|
D:------------|---------------------------7/-|-8-8-5-6-8-----8-----8-|
A:--12----11--|------------------------------------------6-6---------|
E:------------|------------------------------|-----------------------|




Horn part
Ab F G F C
G:------------8-9-10-8-----|-------|--------|-------------------------|
D:-6-6-----------------10\-|-----5-|-----5--|-3-------------2-3-4-4-5-|
A:------6-7-8--------------|-------|--------|---0-1-2-2-2-3-----------|
E:-------------------------|-3-----|-[3]----|-------------------------|
octave




Bb F C
G:-3---------3-5-3-----------|-----------------------|
D:-----3-5-3-------5-3-5-3-3-|-3---------------------|
A:---5-----------------------|---0-1-2--2-3----------|
E:---------------------------|--------------0-1-2--2-|





Bb F C Bb
G:-----------3-3-2---3-2---|-----------------------------------------|
D:---0-1-2-3-------3-----3-|-3---------------------------------------|
A:-1-----------------------|---0-1-2-3-------1-----1-1--1-----1--1-1-|
E:-------------------------|-----------0-1-2---1-3--------1-3--------|





F C Bb A B
G:-----------------------3-----------------3-|--------------------|
D:-3-------------2-3-4-5---0-0-1-1-2-2-5-3---|-----7-------9---9--|
A:---0-1-1-2-2-3-----------------------------|---7-------9-------9|
E:-------------------------------------------|-5-----5/7-----7----|





G C F D E
G:------------------5---5-|-----------------------------|-9-9-8-6-8-6-4-6-4-|
D:------5---------5---5---|---10---11/12-------12-10----|-------------------|
A:----5---5-----3---------|-8----8-------10-12-------12-|-------------------|
E:-3--------3-5-----------|-----------------------------|-------------------|




Intro again
Bm F#m
G:------------------------|----------------------|-----------------|
D:-7-7-6-6-5-5-4---5--5-4-|.----9----------9-----|-----9----------.|
A:---------------7--------|.--9---9------9---9---|---9---9----9-7-.|
E:------------------------|-7-------7--7-------7-|-7-------7-------|
repeat 4x



Head/Outro
Bm A C/G D A
G:-------------|--------------|--------|-------|---------|
D:-------------|--------7-----|--------|-------|-----4-2-|
A:-------9---9-|----------7---|--10----|-5-----|---------|
E:-7-7-7---7---|--5-5-5-----9-|--------|-------|-5-------|
Добавлено: 26.04.2014
Другие материалы по этой песне:

Страница создана 17.03.2012
http://primanota.ru/frank-zappa/peaches-en-regalia-chords.htm
Привет, Гость.
Предлагаем пройти революционный курс по гитаре.
Подарок от PrimaNota.Ru, забирай!