PrimaNota.ru - самый крупный в мире бесплатный архив песенных текстов, аккордов, табулатур и нот


Frank Zappa - Eddie, Are You Kidding - текст песни, бас-таба, видео

Регистрация Запомнить меня
Войти через:  Facebook Google Twitter Vk Yandex Mail.ru

Frank Zappa - Eddie, Are You Kidding - текст песни, бас-таба, видео

Печатать
Просмотров: 68
Уроки эстрадного вокала в Санкт-Петербурге
-------------------------------------------------------------------------------
                    Eddie Are You Kidding - Frank Zappa
-------------------------------------------------------------------------------
Tabbed by: Jacque
E-mail: Imbatman1312@gmail.com

Tuning: Standard

Verse

G|-------------------------------------------|
D|-7--7-4----7--7-4----7--7-4----7--7-4------|
A|--------7---------7---------7---------7----|
E|-------------------------------------------|

G|-------------------------------------------|
D|-------------------------------------------|
A|-7--7-4----7--7-4----7--7-4----7--7-4------|
E|--------7---------7---------7---------7----|

G|-------------------------------------------|
D|-7--7-4----7--7-4----7--7-4----7--7-4------|
A|--------7---------7---------7---------7----|
E|-------------------------------------------|

G|-------------------------------------------|
D|-------------------------------------------|
A|-7--7-4----7--7-4----7--7-4----7--7-4------|
E|--------7---------7---------7---------7----|

G|-------------------------------------------------------------------|
D|-----------------------------------------------------------4--6----|
A|-8--8-8-8--7----8--8-8-8--7----8--8-8-8--7----5--5-----7-7---------|
E|-------------------------------------------------------------------|

Chorus

G|------------------------------------|
D|-11-9-----11-9----------------------|
A|------12-------12----x/10---x/11----|
E|------------------------------------|

G|------------------------------------|
D|-11-9-----11-9----------------------|
A|------12-------12----x/10---x/11----|
E|------------------------------------|

Verse

G|-------------------------------------------|
D|-7--7-4----7--7-4----7--7-4----7--7-4------|
A|--------7---------7---------7---------7----|
E|-------------------------------------------|

G|-------------------------------------------|
D|-------------------------------------------|
A|-7--7-4----7--7-4----7--7-4----7--7-4------|
E|--------7---------7---------7---------7----|

G|-------------------------------------------|
D|-7--7-4----7--7-4----7--7-4----7--7-4------|
A|--------7---------7---------7---------7----|
E|-------------------------------------------|

G|-------------------------------------------|
D|-------------------------------------------|
A|-7--7-4----7--7-4----7--7-4----7--7-4------|
E|--------7---------7---------7---------7----|

G|-------------------------------------------------------------------|
D|-----------------------------------------------------------4--6----|
A|-8--8-8-8--7----8--8-8-8--7----8--8-8-8--7----5--5-----7-7---------|
E|-------------------------------------------------------------------|

Chorus

G|------------------------------------|
D|-11-9-----11-9----------------------|
A|------12-------12----x/10---x/11----|
E|------------------------------------|

G|------------------------------------|
D|-11-9-----11-9----------------------|
A|------12-------12----x/10---x/11----|
E|------------------------------------|

Bridge

G|--------------|
D|-4-7----4-----| Repeat this during spoken word segment.
A|----------7---|
E|--------------|

Eddie, my friends ask me, Eddie, Eddie, are you kidding? I wanna tell you something, my friends: I am 
not kidding. Here at Zachary All we have sixty tailors in the back room. We have the west's largest 
selections of portly's, regulars, longs, extra longs, 
and cadets. And my friends say to me: Eddie, Eddie, what do you think of the new Double Knits?
And I tell them: I'll tell you something frankly, my friends- When the new double knits first came 
out, I was not impressed. But as you can see, these pants I'm wearing are double knit. They stretch 
in all the right places. They're the most comfortable. 
Our model Twiggy here will demonstrate. I have this lovely little
Seersucker . . . wait a minute


WHERE CAN I GO IN GARDENA?

G|----------------------|
D|-5-5-5-5-5-5-5--7~----|
A|----------------------|
E|----------------------|

AND WHERE CAN I GO IN L.A.?

G|----------------------|
D|-5-5-5-5-5-5-5--7~----|
A|----------------------|
E|----------------------|

AND WHERE CAN I GO IN ROSEMONT?

G|----------------------|
D|-5-5-5-5-5-5-5--7~----|
A|----------------------|
E|----------------------|

I NEED SOME THREADS TODAY

Verse

G|---4--------4-------4----4-----|
D|-7---7--------7------------7---|
A|---------5-----------5---------|
E|-------------------------------|

G|-----------------------|
D|----4-------4-----4----|
A|------7-------------7--|
E|-5-----------5---------|

G|----4-------4----4-----|
D|------7------------7---|
A|-5-----------5---------|
E|-----------------------|

G|-------------------------------------------------------------------|
D|-----------------------------------------------------------4--6----|
A|-8--8-8-8--7----8--8-8-8--7----8--8-8-8--7----5--5-----7-7---------|
E|-------------------------------------------------------------------|

Chorus

G|------------------------------------|
D|-11-9-----11-9----------------------|
A|------12-------12----x/10---x/11----|
E|------------------------------------|

G|------------------------------------|
D|-11-9-----11-9----------------------|
A|------12-------12----x/10---x/11----|
E|------------------------------------|

G|------------------------------------|
D|-11-9-----11-9----------------------|
A|------12-------12----x/10---x/11----|
E|------------------------------------|

Bass Does Not Play Until 3:02

Outro

G|---------9--6-----6--9--12---|
D|-7---7-----------------------|
A|-----------------------------|
E|-----------------------------|


| /  slide up
| \  slide down
| h  hammer-on
| p  pull-off
| ~  vibrato
| +  harmonic
| x  Mute note
===============================================================================
Добавлено: 08.02.2016
Другие материалы по этой песне:
  • Аккорды и текст

Страница создана 26.07.2012
http://primanota.ru/frank-zappa/eddie-are-you-kidding--chords.htm
Привет, Гость.
Предлагаем пройти революционный курс по гитаре.
Подарок от PrimaNota.Ru, забирай!