PrimaNota.ru - самый крупный в мире бесплатный архив песенных текстов, аккордов, табулатур и нот


Frank Zappa - Don't You Ever Wash That Thing - текст песни, таба, видео

Регистрация Запомнить меня
Войти через:  Facebook Google Twitter Vk Yandex Mail.ru

Frank Zappa - Don't You Ever Wash That Thing - текст песни, таба, видео

Печатать
Просмотров: 59
Новый альбом группы 'Черный Кузнец' по культовому сериалу 'Сверхъестественное'!
[Main Theme]

e|------7-------------------------------------|
B|-------------5-6-8--------------------------|
G|--5----------------5----7b(9)rp5h7b(8)r-5---|
D|--------------------------------------------|
A|--------------------------------------------|
E|--------------------------------------------|

e|------7-------------------------------------|
B|-------------5-6-8--------------------------|
G|--5----------------5----7b(9)rp5h7b(8)r-5---|
D|--------------------------------------------|
A|--------------------------------------------|
E|--------------------------------------------|

e|-----5--2---3-------------|
B|--------------4-5-6-------|
G|--3-----------------5--5--|
D|--------------------------|
A|--------------------------|
E|--------------------------|


[Verse]

e|--5h7--10--10--5h7--10--10--5h7--10--10---------------|
B|-----------------------------------------6h7--3--3----|
G|------------------------------------------------------|
D|------------------------------------------------------|
A|------------------------------------------------------|
E|------------------------------------------------------|

Nothing Until Main Theme At 0:38


[Main Theme]

e|------7-------------------------------------|
B|-------------5-6-8--------------------------|
G|--5----------------5----7b(9)rp5h7b(8)r-5---|
D|--------------------------------------------|
A|--------------------------------------------|
E|--------------------------------------------|

e|------7-------------------------------------|
B|-------------5-6-8--------------------------|
G|--5----------------5----7b(9)rp5h7b(8)r-5---|
D|--------------------------------------------|
A|--------------------------------------------|
E|--------------------------------------------|

e|-----5--2---3-------------|
B|--------------4-5-6-------|
G|--3-----------------5--5--|
D|--------------------------|
A|--------------------------|
E|--------------------------|


************************************

| (n) Ghost note
| h   Hammer-on
| p   Pull-off
| r   Release
| b   Bend
| br  Bend release

************************************
Добавлено: 12.03.2018
Другие материалы по этой песне:
  • Аккорды и текст

Страница создана 21.04.2012
http://primanota.ru/frank-zappa/dont-you-ever-wash-that-thing--chords.htm
Привет, Гость.
Предлагаем пройти революционный курс по гитаре.
Подарок от PrimaNota.Ru, забирай!