PrimaNota.ru - самый крупный в мире бесплатный архив песенных текстов, аккордов, табулатур и нот


Frank Zappa - Daddy Daddy Daddy - текст песни, таба, видео

Регистрация Запомнить меня
Войти через:  Facebook Google Twitter Vk Yandex Mail.ru

Frank Zappa - Daddy Daddy Daddy - текст песни, таба, видео

Печатать
Просмотров: 149
----------------------------------------------------------------------------
                     Daddy, Daddy, Daddy - Frank Zappa
                                   From:
                               "200 Motels"
----------------------------------------------------------------------------
Tabbed by: Kennezar (Kenneth Dale Harris IV)
Email: kenny4@kdharris.net

Tuning: Standard
Main Riff: Verse
e|--------------------------------------------------------|
B|-11-11-11-11-11-11-12-12-12-11-11-11-11-11-11-12-12-12--|
G|-11-11-11-11-11-11-11-11-11-11-11-11-11-11-11-11-11-11--|
D|-11-11-11-11-11-11-13-13-13-11-11-11-11-11-11-13-13-13--|
A|--------------------------------------------------------|
E|--------------------------------------------------------|
OR:
e|--------------------------------------|
B|-2-2-2-2-2-2-4-4-4-2-2-2-2-2-2-4-4-4--|
G|-3-3-3-3-3-3-4-4-4-3-3-3-3-3-3-4-4-4--|
D|-4-4-4-4-4-4-4-4-4-4-4-4-4-4-4-4-4-4--|
A|--------------------------------------|
E|--------------------------------------|

Verse:

"Ooo-ooo, do you like my new car?
Ooo-ooo, do you like my new car? 

She's such a dignified lady,
she's so pretty and soft.
You can't call her a Groupie,
it just pisses her off.
She's got diamonds and jewelry,
she's got lotsa new clothes.
She ain't hurtin' nobody,
so that everyone knows."

Chorus:

"that she knows what she wants,
knows what she likes.
Daddy, daddy, daddy.
Daddy, daddy, daddy.
Daddy, daddy, daddy."

Chorus: Repeat as needed.
e|----------------------------------------|
B|-4--4-4---2--2-2---2-2--2---4-4--4------|
G|-4--4-4---2--2-2---3-3--3---4-4--4------|
D|-4--4-4---2--2-2---4-4--4---4-4--4------|
A|----------------------------------------|
E|----------------------------------------|

"Look out... she's got her eyes on you."

Verse:

"She left her place after midnight,
she drove to the club.
You know that her and her partner,
came here lookin' for love.
They want a guy from a group
That's got a thing in a charts."

"If his dick is a monster
If his dick is a monster
If his dick is a monster"

e|--------------------------------------------------|
B|--------------------------------------------------|
G|--------------------------------------------------|
D|-----2--------4------2--------4-------2--------4--|
A|---2---2--3-4------2---2--3-4-------2---2--3-4----|
E|-2---------------2----------------2---------------|
"They will give him their hearts."
e|---------------------|
B|---------------------|
G|---------------------|
D|---------------------|
A|---------------------|
E|-2-2-0-2~~~----------|

"Cause they know what they want,
And they know what they like.
Daddy, daddy, daddy.
Daddy, daddy, daddy.
Daddy, daddy, daddy."


| /  slide up
| \  slide down
| h  hammer-on
| p  pull-off
| ~  vibrato
| +  harmonic
| x  Mute note
============================================================================
Добавлено: 14.04.2012
Другие материалы по этой песне:
  • Аккорды и текст

Страница создана 14.04.2012
http://primanota.ru/frank-zappa/daddy-daddy-daddy-chords.htm
Привет, Гость.
Предлагаем пройти революционный курс по гитаре.
Подарок от PrimaNota.Ru, забирай!