PrimaNota.ru - самый крупный в мире бесплатный архив песенных текстов, аккордов, табулатур и нот


Frank Zappa - Cock-Suckers' Ball - текст песни, бас-таба, видео

Регистрация Запомнить меня
Войти через:  Facebook Google Twitter Vk Yandex Mail.ru

Frank Zappa - Cock-Suckers' Ball - текст песни, бас-таба, видео

Печатать
Просмотров: 40
Новый альбом группы 'Черный Кузнец' по культовому сериалу 'Сверхъестественное'!
[Intro]

G|-----------------------------------------------------|
D|-----------------------------------------------------|
A|--3--4--5-----3--4--5-----3--4--5-----3--4--5--x-----|
E|-----------3-----------3-----------3-----------------|


[Verse]

G|-----------------------------------------------------------------------------|
D|-----------------------------------5--------------------------5--5--5--------|
A|-3-----3----3-5-----5-3-2-0--5----------------3-3-3-3-3--3-3-----------------|
E|----3-----3------5--------------5-----3-3--5---------------------------------|

G|--------------------------------------------------------------|
D|-----------------------------------5--------------------------|
A|-3-----3----3-5-----5-3-2-0--5----------------3-3-3-3-2-1-0---|
E|----3-----3------5--------------5-----3-3--5------------------|


[Chorus]

G|--------------------5--/5------|
D|-------------------------------|
A|--5-------------3--------------|
E|-----3--3-3-3-5----------------|


[Verse]

G|-----------------------------------------------------------------------------|
D|-----------------------------------5--------------------------5--5--5--------|
A|-3-----3----3-5-----5-3-2-0--5----------------3-3-3-3-3--3-3-----------------|
E|----3-----3------5--------------5-----3-3--5---------------------------------|

G|--------------------------------------------------------------|
D|-----------------------------------5--------------------------|
A|-3-----3----3-5-----5-3-2-0--5----------------3-3-3-3-2-1-0---|
E|----3-----3------5--------------5-----3-3--5------------------|


[Outro]

G|---------------------------------------------7-5-4-------------------|
D|---------------------------------------------------7--5-4------------|
A|--5-------------3--3-2-1-0--5-----------------------------7-5--3-----|
E|-----3--3-3-3-5----------------3--3--3-3-3-5-------------------------|


************************************
| x   Dead note
| /   Slide up
************************************
Добавлено: 12.03.2018
Другие материалы по этой песне:
  • Аккорды и текст

Страница создана 25.04.2012
http://primanota.ru/frank-zappa/cock-suckers-ball-chords.htm
Привет, Гость.
Предлагаем пройти революционный курс по гитаре.
Подарок от PrimaNota.Ru, забирай!