PrimaNota.ru - самый крупный в мире бесплатный архив песенных текстов, аккордов, табулатур и нот


Frank Zappa - Black Napkins - текст песни, таба, видео

Регистрация Запомнить меня
Войти через:  Facebook Google Twitter Vk Yandex Mail.ru

Frank Zappa - Black Napkins - текст песни, таба, видео

Печатать
Просмотров: 115
Авторы музыки: Frank Zappa

C#m7                 Dmaj7                 G5                    G
      x 4 2 4 5 0          x 5 4 2 2 2          3 5 5 0 3 3          3 x 0 0 0 3

         G5III                 D5
      3 5 x x x x          x 5 7 7 x 5

Gtr I (E A D G B E) - 'FZ'
Gtr II (E A D G B E) - 'Keyboards'
Gtr III (C# A D G B E) - 'VCF'

  Q=105
                      C#m7                               Dmaj7
 3/4
                      Gtr II
  W                     H.             +H.               H.
                        |               |                |
                        /               /                /

  Gtr I
                        ~~~~
       |-3--|
  H    E  E E    a     +H     a a Q     e  E Q  S  S E   T  T T  T E +H
|-------------|-12b14-(12)-----------|-12--------------|-9h12p9h12p9-(9)----|
|--------12-9-|----------------------|------------12-9-|--------------------|
|-------------|---------------x------|-----------------|--------------------|
|-------------|-----------------x----|-----------------|--------------------|
|-------------|----------------------|-----------------|--------------------|
|-------------|----------------------|-----------------|--------------------|


                        C#m7
  +H.                     H.         +H.
   |                      |           |
   /                      /           /

                          ~~~~
                                              |--3--|
   H     S  S E    a     +H     Q     e  E Q  E S S E
|---------------|-14b16-(14)-------|-12---------9-7---|
|----------12-9-|------------------|----------------9-|
|---------------|------------------|------------------|
|---------------|------------------|------------------|
|---------------|------------------|------------------|
|---------------|------------------|------------------|


  Dmaj7                              C#m7
  H.                 +H.              H.                   +H.
  |                   |               |                     |
  /                   /               /                     /

     |-3--|                 |-3--|
  E  S  S S +H        H     E  E E    Q       +Q    +Q      e  E Q  S  S E
|-9--9h12p9-(9)----|---------------|-12b14===(12)r=(12)--|-12---------------|
|------------------|----------12-9-|---------------------|------------12-9--|
|------------------|---------------|---------------------|------------------|
|------------------|---------------|---------------------|------------------|
|------------------|---------------|---------------------|------------------|
|------------------|---------------|---------------------|------------------|


  Dmaj7                                   C#m7
  H.                   +H.                H.              +H.
  |                     |                 |                |
  /                     /                 /                /

                              PM                  ~~~
     |-3--|                       |-3-|   |-3--|
  E  S  S S +Q   E E    Q   E E a E E E   E  E E +H       +Q.   E E T S T
|-9--9h12p9-(9)------|------------------|---------------|-----------------|
|--------------------|------------------|---------------|-----------------|
|--------------------|------------------|---------------|-----------------|
|--------------------|----------4h6---2-|-4--2----------|-----------------|
|----------------x---|--------4---------|------4-(4)----|-(4)---2-4-4p2-2-|
|--------------------|------------------|---------------|-----------------|


  Dmaj7
  H.                         +H.
  |                           |
  /                           /

                              ~~~
     |-3-|           |-3-|
  E  S S S E T S T E S S S   +H     +E   E
|--------------------------|---------------|
|--------------------------|------------^x-|
|--------------------------|------------^x-|
|--------------------------|------------^x-|
|-2--2h4p2-2-4p2h4-2-2h4p2-|-(2)----(2)----|
|--------------------------|---------------|


  C#m7
  H.
  |
  /

               |--3--|  |--3--|                    |-3--|
  S   T  T  S  T  T  T  S  S  S  S  S a     +S. T  S S  S
|---------------------------------------------------------|
|----11-11-12-14-14-14-16-14-12-14-12-9b12==(9)r9-12-9----|
|------------------------------------------------------11-|
|---------------------------------------------------------|
|---------------------------------------------------------|
|---------------------------------------------------------|


            +H.
             |
             /

             |-----6------|                |------3-------|
   a        +S   +S  E  S S  S  S S  a  S  T S.  T S.  a  E
|-----------------------------------------------------------|
|-----------------------------------------------------------|
|-11b13.5==(11)r(11)-9-11p9---------------------------------|
|---------------------------11-11-9-------------------------|
|-----------------------------------11-12-11-9--11-9--11-12-|
|-----------------------------------------------------------|


  Dmaj7
  H.                    +H.
  |                      |
  /                      /

  |---6----|
  S  S S S E +Q   Q      W
|---------------------|----------|
|---------------------|----------|
|---------------------|----------|
|--------2-4-(4)------|----------|
|-4--4----------------|----------|
|------0----------x\--|----------|


    C#m7
    H.
    |
    /

    |----3----|            |3| |---3---| |-3-|
  a S   S  T  T  T  T  S a S E E E T T S S S S
|------------------------4s7---7-7-7-6-4-7-4---|
|-7s9--10-12-14-16p14p12-5s7-7---------------7-|
|-------------0--------------0-----------------|
|----------------------------------------------|
|----------------------------------------------|
|----------------------------------------------|


                                        Dmaj7
    +H.                                 H.                         +H.
     |                                  |                           |
     /                                  /                           /

                           |---5----|   |-3--|
  a  S   S E a  E E a     +S  S S S S   S  S S T T S    +Q   Q      W
|-------------------------------------|--------------------------|--------|
|-7s=9--------------------------------|--------------------------|--------|
|-------11-9--------------------------|--------------------------|--------|
|------------9s11-9-------------------|--------------------------|--------|
|-------------------9b11==(9)r9-7-9-7-|-9--7---7-0-7b9==(7)r=x\--|--------|
|-------------------------------------|------9-0-0---------------|--------|


  C#m7
   H.
   |
   /

   |-----5------|  |-----3-----|
   S   S  S  S  S  E  T  S  T  E a  S  S  T  T S
|-----------------11-----------------------------|
|--------11-12-14----14-12-11-12-9s11-12-12-11-9-|
|-11--13-----------------------------------------|
|------------------------------------------------|
|------------------------------------------------|
|------------------------------------------------|


  +H.
   |
   /

   |----------3----------| |-3--|
   S   T T  T T  S  T T  S S  S S  S S
|---------------------------------------|
|-11--11-9-11-9------------9------------|
|---------------11-11-9-11---11-9-11-9--|
|---------------------------------------|
|---------------------------------------|
|---------------------------------------|


  Dmaj7
   H.                              +H.
   |                                |
   /                                /

                                           <
   T  T S T  T T  T T T E. +Q       H      Q
|--------------------------------|--------[7]--|
|--------------------------------|-------------|
|-11--9--------------------------|-------------|
|-------9-9----------------------|-------------|
|-----------11-9s11s9-7-9--(9)\--|-------------|
|--------------------------------|-------------|


  C#m7
  H.                              +H.
  |                                |
  /                                /

       |3| |5|   |----7:6-----|    |-----5------|   |-3-|
  E  a E S S S.  S  +S   S E  E    T   T  T  T  T  +E   S Q  E a   +E
|--------9-9-9--12-(12)------14-|-12--14-12----12-(12)------------------|
|----7s9---9-9---9------12-9----|-----------14---------14------7b9-(7)--|
|------------------------9------|---------------------------------------|
|-------------------------------|---------------------------------------|
|-------------------------------|---------------------------------------|
|-------------------------------|---------------------------------------|


  Dmaj7
        H.                  +H.
        |                    |
        /                    /

                                     <
        |-3--|
  a    +S  S S E +H         +H       Q
|-------------------------|--------[12]--|
|-7b9==(7)r7---7-(7)b9----|-(7)----------|
|------------9------------|--------------|
|-------------------------|--------------|
|-------------------------|--------------|
|-------------------------|--------------|


  C#m7
  H.                     +H.
  |                       |
  /                       /

                             PM|
  |-5--|       |-3--|     |---6----|      |3|
  E  S E +Q   +Q    E     E  S S S S Q    E Q
|-----------------<12>-|--7--9-9-9-9-9--/12---|
|----------------------|----------------------|
|----------------------|----------------------|
|----------------------|----------------------|
|-4--4-4-(4)--(4)------|----------------------|
|----------------------|----------------------|


  Dmaj7
   H.
   |
   /

                         |---------3---------|   |-----6------|
   S   T  T  T  T  T  T  S  S  S  S  a      +E   E  S  S  S   S
|-----12-12-14-14-12-14-12---------------------------------------|
|-14-----------------------14----14-12b14==(12)-12-12r12-----14--|
|--------------------------------------------------------11-(11)-|
|-----------------------------11---------------------------------|
|----------------------------------------------------------------|
|----------------------------------------------------------------|


  +H.
   |
   /

   |-------6-------|   |------6-------|    |-3--|
   S   S  S  S  S  S  +S   E  a  S  S S E  S S  S
|--------------------------------------------------|
|-----12-14-12-------------------------------------|
|-11-----------13-11-(11)-11-11s13-11-9---11-9-----|
|----------------------------------------------11--|
|--------------------------------------------------|
|--------------------------------------------------|


  C#m7                                  Dmaj7
  H.                       +H.          H.
  |                         |           |
  /                         /           /

                  |3|                       |---3----| |-----3------|
  S   S S  S S S  E S Q     W           Q   E T S. S S S T T T S. S S
|--------------9----9----|------------|-------------------------------|
|------------9---12------|------------|-------------------------------|
|-9-----9-11-------------|------------|-------8-9--8-9-8-----8-9--8-9-|
|----11-0----------------|------------|------------------9-9----------|
|------------------------|------------|-------------------------------|
|------------------------|------------|-------------------------------|


  Dmaj7                                 C#m7
  +H.                                   H.
   |                                    |
   /                                    /

   |-3--| |3|           |3| |-3-|       |-----3-----| |3|
   S  S S S E T T T T S S E T T T S S   T  S. S S S S Q E +Q
|-------------------------------------|------------------------|
|-------------------------------------|------------------------|
|--8------8-9-8-9-8-----8-9-8-9-8-----|-8--6--6-9-6---6-6-(6)--|
|-----9-9-----------9-9-----------9-9-|-------------9----------|
|-------------------------------------|------------------------|
|-------------------------------------|------------------------|


  C#m7                   Dmaj7
  +H.                     H.               +H.
   |                      |                 |
   /                      /                 /

                                  ~~~~
                  |3-|    |-3-|                   |--3--|
  +E. a  S  +Q    Q  E    Q   E  +H        +Q.    S  S  S  E  E
|----------------------|----------------|-----------17----------|
|----------------------|----------------|--------12-17-12-12-12-|
|-(6)-6s11-(11)--11-11s|=16--16-(16)----|-(16)------------------|
|----------------------|----------------|-----------------------|
|----------------------|----------------|-----------------------|
|----------------------|----------------|-----------------------|


  C#m7
   H.
   |
   /

   |--------7--------|  |-------7-------| |-------7-------|
   S   S  S  S S  S  S  S  S S  S  S  S S S  S  S  S S S  S
|-----17---------------17---------17-----------17-----------|
|-12--17-12-12-0-12-12-17-12-0-12-17-12-0-0-12-17-12-0-0-12-|
|-----------------------------------------------------------|
|-----------------------------------------------------------|
|-----------------------------------------------------------|
|-----------------------------------------------------------|


  +H.
   |
   /

   |-----5-----| |--12:8---|
   S  S. T T S T E. E. E E E
|------------------------------|
|-12--7--7-7-7-7-7--7--7-7-7s==|
|------------------------------|
|------------------------------|
|------------------------------|
|------------------------------|


  Dmaj7
  H.                             +H.
  |                               |
  /                               /

  |----6-----| |-----9:8-----|              |-------3--------|
  S  S S S S S E E S T T T T E    Q   +Q    E  S.  T  T  T T T
|----------------------0-------|---------------------17--------|
|-2--2-2-2-2-0-2-2-2-2---2-0-2-|--2---(2)s=12-12--12----12-0-0-|
|----------------------0-------|-------------------------------|
|----------------------0-------|-------------------------------|
|------------------------------|-------------------------------|
|------------------------------|-------------------------------|


  C#m7
   H.
   |
   /

                       |-3--|     |--3--|
   S   T  T  T T T  E  T  T T  T  T  T  T  E  E
|--------17-----------17------------------------|
|-12--12----12-0-0-12----12-0-12-12-12-12-12-12-|
|-----------------------------------------------|
|-----------------------------------------------|
|-----------------------------------------------|
|-----------------------------------------------|


  +H.
   |
   /

   |------3------|         |-3-|
   E   S S T T T T S S S S E E E
|--------------------7-------------|
|-12--12s7-7-7-7-7-7---7-0-7-7-7s==|
|----------------------------------|
|----------------------------------|
|----------------------------------|
|----------------------------------|


  Dmaj7
  H.                           +H.
  |                             |
  /                             /

     |3|                                 |-----2:3-----| |-----3------|
  E  E S E E T T T T T T T T    T  T T T T T T T T T T T T S. S  S  T S.
|----------------------------|----------------------------------<5>--------|
|-2--2-2-2-2-2h5p2p0h2h5p2p0-|--2--5-2-0-5-5-2-0-5-5-2-0-0-2--5-----5-7----|
|------------0---------------|-----0---------------------------------------|
|----------------------------|---------------------------------------------|
|----------------------------|---------------------------------------------|
|----------------------------|---------------------------------------------|


  C#m7
      H.                 +H.
      |                   |
      /                   /

                                                     PM
      |3-| |-3-|          |---3----| |------3------| |----3----|
  a a Q  E S S Q a E E    S  S S S E E T T T T T T S E S S T S T
|--------------------7-|--9--7-9-7-0-7---------------------------|
|-7h8h9--9-7-5-7-7s9---|-----------0---9---9---9-7-----7-5-------|
|----------------------|-----------------9---0-----9-------6p4h6-|
|----------------------|-----------------------------------------|
|----------------------|-----------------------------0-----------|
|----------------------|-----------------------------0-----------|


  Dmaj7
  H.                                +H.
  |                                  |
  /                                  /

                                            PM
  |-3--| |-3-|  |-------3-------|    |----6-----|   |3|
  E  E E Q S S +S  S a    +E  S S    S  S S S S S a E Q S S E
|------------------4-2b4==(2)r2p0-|--2--0-----------------4-7-|
|---------------------------------|-------2---0---------------|
|-4----------4-(4)----------------|---------------------------|
|----4-2---6----------------------|---------0-----6s4s2-------|
|--------0------------------------|---------------------------|
|---------------------------------|---------------------------|


  C#m7
  H.
  |
  /

      PM
    |---3---|   |-3-|
  a Q     S S   E E E S T T +S  a  S
|-2s4-----4-2------------------------|
|-------------------------------9s12-|
|---x---x----------------------------|
|-----x-------4-6s4-2-4-2------------|
|-------------------------0-(0)------|
|------------------------------------|
    S S Q     a H
    |-3-|


  +H.
   |
   /

   |----6-----| |-----6------|  |-----6------|
   E  S  S S  S S  S S  S S  S  S   S S S  S S
|----------------------------------------------|
|-12--9-12-9-12-9-12-9-12-9-12--9--12-8-9-12-9-|
|-----x---------x---------x--x-(x)---------x---|
|----------------------------------------------|
|----------------------------------------------|
|----------------------------------------------|
   E  Q         Q         S  S +E     E    E
   |6-|         |-----6------|  |----6-----|


  Dmaj7
   H.
   |
   /

   |-----6-----|  |-------6--------|                |-3--|
   S  S  S S S S  S   S  S  S   S  S  a      +S   S S S  S
|----------------------------------------------------------|
|--8--9-12-9-8-9-14--17-19-17--14-14-----------------------|
|-(x)--------x-x-(x)--------x--------11b13==(11)r11-9-9----|
|-------------------------------------------------------11-|
|----------------------------------------------------------|
|----------------------------------------------------------|
  +Q         S S +E.        E.                Q
   |-----6-----|  |----6----|


   +H.
    |
    /

    |--3--|            |---3---|  |---3---|
   +S  S  S  +E       +Q   +S  S  E  E  S S
|-------------------------------------------|
|-------------------------------------------|
|------9-11-(11)b13==(11)r(11)-9-11-11-11-9-|
|-(11)--------------------------------------|
|-------------------------------------------|
|-------------------------------------------|


  C#m7
  H.                               +H.
  |                                 |
  /                                 /

             |---3---|  |--5---|                      |-3--|
  S   S S  S E  S. T E +S  S E S    S. T S S    +Q   +E  E E
|--------------------------------|---------------------------|
|--------------------------------|---------------------------|
|-9--11-9----9-------4-(4)-------|---------------------------|
|---------11---\6--6-------6s4-2-|-----2---------------------|
|---------------x----------------|--4----4-2b4==(2)--(2)r2-4-|
|--------------------------------|---------------------------|


  Dmaj7
  H.
  |
  /

  PM
  |3-| |-3-| |--3--|
  Q  E E E E S S E E
|--------------------|
|--------------------|
|------------4-4-4-6-|
|----4-6-6-6---------|
|-x------------------|
|-0------------------|


                                                                  C#m7
  +H.                                                               H.
   |                                                                |
   /                                                                /

      |----------8----------|   |---3---|   |-----3------|                |3-|
      S S S S    +S  a S S  S  +S   S  +Q   S      +S   +Q         +H     Q  e
|----------------------7-9-12-(12)-12-(12)-12b14==(12)-(12)b14==|=(12)------12r--|
|-----5-5-5-7b9==(7)r7------------------------------------------|----------------|
|---------------------------------------------------------------|----------------|
|---------------------------------------------------------------|----------------|
|---------------------------------------------------------------|----------------|
|---------------------------------------------------------------|----------------|


  +H.
   |
   /

   |-------3-------|   |----3-----|  |-------3--------|
   E   T      +S.  E  +E   E  S.  T  S.  T  S.  T  S  S
|-11--12b14==(12)r14-(14)-12-11--12-12--14-12--11-12-11-|
|----------------------------------------------12-------|
|-------------------------------------------------------|
|-------------------------------------------------------|
|-------------------------------------------------------|
|-------------------------------------------------------|


  Dmaj7
   H.                                  +H.
   |                                    |
   /                                    /

   |------3------|   |---3----|  |3|    |----3----|         |----3----|
   s.  T  S  S  +E   E  S  S  E  Q E    T   T  S  Q  +Q    +E   E  S  S
|-12--12h14p12-(12)-12-12-------12---|-14--14-12---------------11-12-12--|
|-------------------------14-14------|-----------14-(14)--(14)-----------|
|------------------------------------|-----------------------------------|
|------------------------------------|-----------------------------------|
|------------------------------------|-----------------------------------|
|------------------------------------|-----------------------------------|


  C#m7
   H.
   |
   /

   |-----3------|  |-----3-----|  |-----3------|
   S   S  E  S  S  S  S  E  S  S  S  S  E  s.  T
|-12--11----11-11-12-11----11-11-12-11----12--14-|
|--------14-------------14-------------14--------|
|------------------------------------------------|
|------------------------------------------------|
|------------------------------------------------|
|------------------------------------------------|


  +H.
   |
   /

                       <
   |-------3-------|   |----3----|  |---3----|
   E   T  S  T  S  S   E   S  S  E  E  E  S  S
|-16--14-16-14-12-11-[19]-12s14s17-17-17-17-19-|
|----------------------------------------------|
|----------------------------------------------|
|----------------------------------------------|
|----------------------------------------------|
|----------------------------------------------|


  Dmaj7
   H.
   |
   /

   |-----3------|   |----3----|  |--3--|
   S   S  S  E  S  +E   E  S  S  E  E  E
|-17--14-14-17-16-(16)-16-18-16-14-14-12-|
|----------------------------------------|
|----------------------------------------|
|----------------------------------------|
|----------------------------------------|
|----------------------------------------|


  +H.
   |
   /

   |--3---|  |3-|  |3-|  |-----6-----|
   E   E  E  S  E  S  E  S  S  S  E  S
|-12--12-12-12-12-12-------12-------21-|
|--------------------14-14----14-12----|
|--------------------------------------|
|--------------------------------------|
|--------------------------------------|
|--------------------------------------|


  C#m7
   H.                                     +H.
   |                                       |
   /                                       /

   |---3----| |----3----|        |-3--|    |---3----|      |--------6--------|
   S  S  E  E E a    E  E  a    +E  E E    E  T T S E +Q   S    +E  S    +S  S
|--------7--9-----------9---------------|--------------------------------------|
|-12--9-(9)---9-7b8==7-(7)r7b9==(7)r7---|-----5-6------------------------------|
|-------------------------------------9-|--6------6-6-(6)--4b6==(4)r4b6==(4)r4-|
|---------------------------------------|--------------------------------------|
|---------------------------------------|--------------------------------------|
|---------------------------------------|--------------------------------------|


  Dmaj7                      C#m7
  H.              +H.        H.
  |                |         |
  /                /         /

                                         <
  PM
  |-3--|                     |-3--| |---3---|
  E  E E +H        W         Q  S S E S  S  E Q
|---------------|----------|------------[9]------|
|---------------|----------|---------------------|
|---------------|----------|-6--6-6-6-6----------|
|----4-4-(4)----|----------|---------------------|
|-x-------------|----------|---------------------|
|-0-------------|----------|---------------------|


      +H.
       |
       /

                                      <
       |-------9:8--------| |--3--|
  a a  T  T T T T T a T T T S S E E   E. S
|---0--2--2-2-2-0-----2-2-2-0--------[9]-----|
|-0---------------0-0---------0---x/-----0---|
|--------------------------------------------|
|--------------------------------------------|
|--------------------------------------------|
|--------------------------------------------|


  Dmaj7
  H.                              +H.
  |                                |
  /                                /

                                            PM
  |----3-----|
  S. T T S T E +E  S. T a a q      Q     e  e  Q
|-------------------------------|----------(0)----|
|-------------------------------|------/19-(0)----|
|-6--6-6-6-6-6-(6)-6--4-6-4-0/--|----------(0)----|
|---------------------------0---|----------(0)----|
|-------------------------------|-----------------|
|-------------------------------|-----------------|


  C#m7
  H.                          +H.
  |                            |
  /                            /

  |----3----|
  E  S. T S S Q    a E S. T    E         E        H
|---------------------------|------------------------------------------------------------|
|-------------------------5-|--7---------------------------------------------------------|
|-4--6--6-6-6-6--/11---4----|------------------------------------------------------------|
|---------------------------|------------------------------------------------------------|
|---------------------------|------------------------------------------------------------|
|---------------------------|------------------------------------------------------------|
|
|                             Gtr III
|                              |-------6-------|  |------6-------|  |--------6--------|
| W                            S   S  S  S  S  S  S  S  S  S  S  S  S  S  S  +S   S  +S
|---------------------------|-17--17-17-17-17-17-17-17-17-17-17-17-17-17-----------------|
|---------------------------|-----------------17-------------------------17-(17)-17-(17)-|
|---------------------------|------------------------------------------------------------|
|---------------------------|------------------------------------------------------------|
|---------------------------|------------------------------------------------------------|
|---------------------------|------------------------------------------------------------|


  Dmaj7
  H.                                 +H.
  |                                   |
  /                                   /

                                                               |---6---|
  W                                   H                        E   S S E
|----------------------------------|-----------------------------------------|
|----------------------------------|-----------------------------------------|
|----------------------------------|-------------------------------4-4-4-----|
|----------------------------------|-----------------------------------------|
|----------------------------------|-----------------------------------------|
|----------------------------------|-----------------------------------------|
|
| |----6----| |---6---| |---6----|    |------6------| |--6---| |----6----|
| S   E  S  E E  S  S E S S S  S E    S  S  S  S S  S S  E.  E S S S S S S
|----17-17-17---17-17---------21---|--x--x-14-12---12---12--12---------------|
|----------------------------------|-----------------------------------------|
|----------------------------------|-------------------------------4-4-4-----|
|----------------------------------|---------------------------x-x-----------|
|----------------------------------|-------------------------------------6---|
|----------------------------------|-----------------------------------------|


  C#m7
  H.
  |
  /

  |3|                         |----6----|
  S E   +E      +Q            E   S S S S
|---------------------------------7-9-9-9-|
|-----------------------------------------|
|-----------------------------------------|
|-----------------------------------------|
|-2s4---(4)-----(4)-----------4-----------|
|-----------------------------------------|
|
| |-----6-----|  |----6-----| |----3----|
| S S S  S  S S  S  S S S S S S S S S S S
|---------------------------------x-x-x-x-|
|-----------------------------x-x---------|
|-4-6-6----------6--------4-6-------------|
|-----------------------------------------|
|--------4----4-----4-4-4-----------------|
|-----------0-----------------------------|


  +H.
   |
   /

   |------6------|   |---6---|     |-3-|
   T   S T S S S S a E   S S E   a E   Q
|--9--12-9-7-----7-4s7---7-4-----0s2---0-------|
|------------9---------------7-----------------|
|----------------------------------------------|
|----------------------------------------------|
|----------------------------------------------|
|----------------------------------------------|
|
|                    |----6----|   |----6----|
|  Q                 S S S S S S   S S S S S S
|--------------------x---x-x---------5---------|
|----------------------0-----x-7-------x-5---5-|
|----------------------------------------------|
|----------------------------------4-------2---|
|----------------------------------------------|
|----------------------------------------------|


  Dmaj7
  H.                                         +H.
  |                                           |
  /                                           /

  |-3-|        |---3----|    |----6----|      |-----6-----|  |---3----|
  S S S E     +Q        E   +S  S S S  E      S  S E.     S +E    E   E   Q
|---------------------------------5s9-12---|-12--9-7------7-(7)---7-----------|
|------------------------------------------|--------------------------9-------|
|------------------------------------------|----------------------------------|
|------------------------------------------|----------------------------------|
|-2s4-4-4-----(4)-------4---(4)------------|----------------------------------|
|------------------------------------------|----------------------------------|
|
| |----6----|  |----6-----|  |-----6-----|    |-----6-----|  |----6-----|
| S S S S S S  S  S S S S S  S  S S S  S S    S  S S  S S S  S  S S S S S Q
|-------------14----9--------9----x-x--x---|--x--x-x--7---x-------7---4-------|
|----------------------------------------7-|------------0----0------0---------|
|---------6-------6-------6----------------|----------------------------------|
|------------------------------------------|----------------------------2-----|
|-x-x-x-x---4---------4-x------------------|--------------------4-------------|
|------------------------------------------|----------------------------------|


  C#m7
  H.
  |
  /

  |-3--|                     |---6----|
  E    S E     +Q            S S S S  E
|------------------------------9-9-9s11---|
|-----------------------------------------|
|-----------------------------------------|
|-----------------------------------------|
|-2----2-4-----(4)------------------------|
|-----------------------------------------|
|
| |----6-----|  |----6-----| |----6-----|
| S  S S S S S  S  S S S S S S S S S  S S
|------------------9-----------x-x-x--x---|
|-----------------------------------------|
|----------6----6----6-x-x-x--------------|
|-----------------------------------------|
|-x--2-x-x---4-----------------0---0--2---|
|-----------------------------------------|


  +H.
   |
   /

   |--------------5---------------|     |------6------|
   T     T    S      T    T  S    S     E    S  S  S  S Q
|-14----------------------------------------------------------------|
|-------14---12-----12---14-12---14---------------------------------|
|-------------------------------------/16---16-16s13-13-------------|
|-------------------------------------------------------------------|
|-------------------------------------------------------------------|
|-------------------------------------------------------------------|
|
|  |---------------3----------------|   |------6------| |----6----|
|  T  T    T    T T    T  S    S    S   S S  S  S  S  S S S S S S S
|--x--x----x------x----x--x----x----x---x----x--x--x--x-x---x---x---|
|-----------------------------------------0---------------x-------x-|
|-------------------------------------------------------------x-----|
|-------------------------------------------------------------------|
|---------------4---------------------------------------------------|
|-------------------------------------------------------------------|


  Dmaj7
  H.
  |
  /

  |3|           |-----6-----| |---6----|
  S E   +E      S S S +E    S E.     S E
|------------------------------------------|
|------------------------------------------|
|---------------------------4-6------4-6---|
|------------------------------------------|
|-2s4---(4)-----4-4-2-(2)------------------|
|------------------------------------------|
|
| |-----6-----| |-----6-----| |----6-----|
| S S S  S  S S S S S  S  S S S  S S S S S
|------------------------------------------|
|------------------------------------x-----|
|-----4-------6-8------4--6-x-x----x---x-x-|
|--------------------------------x---------|
|-x-x----4--4-----x-x----------------------|
|------------------------------------------|


  +H.
   |
   /

   |-3--|
  +S  S S +E      +H
|--------------------------------------------|
|-----7s5-(5)-----(5)------------------------|
|-(6)----------------------------------------|
|--------------------------------------------|
|--------------------------------------------|
|--------------------------------------------|
|
|  |-----6------|  |----6-----| |----6----|
|  S  S S  S  S S  S  S S S S S S S S S S S
|---------12----------------------------x----|
|-----x-x-----x----x--x-x-x-x-x-x---x--------|
|--x------------x---------------------x---x--|
|---------------------------------x----------|
|--------------------------------------------|
|--------------------------------------------|


  C#m7
        H.
        |
        /

             |-3--| |-----3-----|
  a    +Q   +Q  S S S s T S T S S
|-------------------------7-------|
|-7b9==(7)--(7)-7-7-7-7-7---7-7r7-|
|---------------------------------|
|---------------------------------|
|---------------------------------|
|---------------------------------|


  +H.
   |
   /

   |-------6-------| |------5-------| |--------3---------|
   S  S S    +S  S S S S a    +S  S S T T a    +T  T E S S
|--7-------------7----------------7------------------7-7----|
|-----7-7b9==(7)---7r7---7b9==(7)---7r7---7b9==(7)-7-----7r=|
|----------------------8----------------8-------------------|
|-----------------------------------------------------------|
|-----------------------------------------------------------|
|-----------------------------------------------------------|


  Dmaj7
  H.                                   +H.
  |                                     |
  /                                     /

                        <                                  <
  |------3------| |---5----| |--3--|    |--3--|            |------3------|
  S. T    +E  S S E S   S  S E E S S    S  S  S  E  E  E   E   E      S  S
|----7b9==(7)-7-7-7-7r[14]---7-7-7-7-|--7--7s11-11-11-11-[12]-10b12==10-10-|
|-7------------------------9---------|-------------------------------------|
|------------------------------------|-------------------------------------|
|------------------------------------|-------------------------------------|
|------------------------------------|-------------------------------------|
|------------------------------------|-------------------------------------|


  C#m7
   H.                        +H.
   |                          |
   /                          /

   |3-|      |3-|  |--3--|           |---3----|  |-------3-------|
   Q  E      E  Q  E  E  E    E   E  E  E  S  S  S  E      S  S  S
|-10r10b12==10-10-10-10-10-|-10--10-10-10-10-10-10r10b12==10-10r10-|
|--------------------------|---------------------------------------|
|--------------------------|---------------------------------------|
|--------------------------|---------------------------------------|
|--------------------------|---------------------------------------|
|--------------------------|---------------------------------------|


  Dmaj7
          H.
          |
          /

                     |--3--|  |---3----|
   a      Q    S  S  S  S  S  E  S  S  E
|-10b14==10---10-10-10-10-10-10-10-10-10-|
|----------------------------------------|
|----------------------------------------|
|----------------------------------------|
|----------------------------------------|
|----------------------------------------|


  +H.
   |
   /

   |----3----|  |------6-------|  |------6-------|
   E   E  S  S  S  S  S  S  S  S  S  S  S  S  S  S
|-10--10-10-10-10-10-10-10-10-10-10-10-10-10-10-10-|
|--------------------------------------------------|
|--------------------------------------------------|
|--------------------------------------------------|
|--------------------------------------------------|
|--------------------------------------------------|


  C#m7
   H.
   |
   /

   |-------8:6--------|
   Q  E  E  E   E  E  E
|-10r10-10-10--10-10-10r-|
|------------------------|
|------------------------|
|------------------------|
|------------------------|
|------------------------|


  +H.
   |
   /

   |-----3-----|      |--------3---------|  |--3--|
   E      +E   E      E   S    S    S    S  S  S  S  E
|-10b14==(10)r10b14==10-[10]-[10]-[10]-[10]---10-10-10-|
|------------------------------------------------------|
|------------------------------------------------------|
|------------------------------------------------------|
|------------------------------------------------------|
|------------------------------------------------------|


  Dmaj7
   H.
   |
   /

   |------3------|   |------3-------|  |---------3----------|
   E  a S  S  S  S  +E    S   S  S  S  T  T  T  T  S  S  S  S
|-------------------------------------------------------------|
|-17r17---17-17-17-(17)-[14]----------17-19-17-------------19-|
|------------------------18--16-18-16----------18-18-16-18----|
|-------------------------------------------------------------|
|-------------------------------------------------------------|
|-------------------------------------------------------------|


  +H.
   |
   /

   |--------------9---------------|  |------6-------|  |-----6------|
   S   S  S  S  S  T  T  T  T  S  S  S  S  S  S  S  S  S  S  S  S S S
|-----------------------------------------------------------------------|
|-17--------------17-19-17----------------------------------------------|
|-----18-18-16-18----------18-18-16-18----------------------------------|
|-----------------------------------------18-14-14-14-16-14-16-14-------|
|--------------------------------------16-------------------------------|
|-----------------------------------------------------------------9-7---|


  C#m7
  H.
  |
  /

  |--------3--------| |----6----|        |-3-|
  E  S      S S     S S S S S S S      E S S S
|----------------------------------------------|
|-7--7b8.5==7r8b8.5-8-8-8-8-8-8-8b8.5==8-8-8-8-|
|----------------------------------------------|
|----------------------------------------------|
|----------------------------------------------|
|----------------------------------------------|


  +H.
   |
   /

   |---3----| |------6-------|   |---------6---------|
   S  S S S E S S S  S   S   S   S   S   S   S   S   S
|--------------------------------------------------------|
|--8--8-8-8-8r8-7-7-[5]-[7]-[0]-[8]-[5]-[8]-[5]-[5]-[5]--|
|--------------------------------------------------------|
|--------------------------------------------------------|
|--------------------------------------------------------|
|--------------------------------------------------------|


  Dmaj7
  H.                                                    +H.
  |                                                      |
  /                                                      /

     |-3-|   |------6------|   |---------6---------|            |-5--|
  E  S S S   S    S  S S S S   S   S   S   S   S   S     Q   Q  E  S E
|----------[14]-[14]---------[14]---------------------|----------------|
|-7--7---7-----------7-7-7-7------[9]-[9]-[9]-[9]-[5]-|-----------12-9-|
|-----------------------------------------------------|--6\------------|
|------4----------------------------------------------|----------------|
|-----------------------------------------------------|----------------|
|-----------------------------------------------------|----------------|


  C#m7                                     Dmaj7
   H.                    +H.               H.                 +H.
   |                      |                |                   |
   /                      /                /                   /

                                  |3-|        |-3--|                      |3|
   a      +H      +Q      E  E Q  E  S E   E  S  S S +H        E  E Q  E  S E
|-12b14==(12)r===(12)--|-12--------------|-9--9-12-9-(9)----|-----------------|
|----------------------|------------12-9-|------------------|--x---------12-9-|
|----------------------|-----------------|------------------|-----------------|
|----------------------|-----------------|------------------|-----------------|
|----------------------|-----------------|------------------|-----------------|
|----------------------|-----------------|------------------|-----------------|


  C#m7
           H.                              +H.
           |                                |
           /                                /

   a      +H      E   a      +E     a      +E   a      +S   S  E E Q
|-14b16==(14)----17r-14b16==(14)-|-14b16==(14)-14b16==(14)-14r12------|
|--------------------------------|------------------------------------|
|--------------------------------|------------------------------------|
|--------------------------------|------------------------------------|
|--------------------------------|------------------------------------|
|--------------------------------|------------------------------------|


  Dmaj7
  H.                         +H.
  |                           |
  /                           /

               |----6----|
  Q   S a  E.  E S  S S  S    H     S  S E
|-------9s12--12-9-12-9----|--9-------------|
|-----------------------12-|----------12-9--|
|--------------------------|----------------|
|--------------------------|----------------|
|--------------------------|----------------|
|--------------------------|----------------|


  C#m7
      H.
      |
      /

   a  E.  S  +E   a      +Q    E
|-11s14--12-(12)-12b14==(12)r=12-|
|--------------------------------|
|--------------------------------|
|--------------------------------|
|--------------------------------|
|--------------------------------|


          +H.
           |
           /

           |-------7-------|         |-3--|       |--3---|
   a      +S   S S  S S  S S  a      S  S S  S S  E E  a E
|-12b14==(12)r12-9-12-9----9-------------------------------|
|-----------------------12---------------------------------|
|----------------------------11b13==11r11-9-11-9-----------|
|------------------------------------------------11-9------|
|-----------------------------------------------------11s9-|
|----------------------------------------------------------|


  Dmaj7
   H.          +H.
   |            |
   /            /

                    |3|
   e  E H       Q   Q E  E  E
|------------|--------9-10-10-|
|------------|----------------|
|------------|----------------|
|------------|----------------|
|------------|----------------|
|-12---------|----------------|


  C#m7
     H.                           +H.
     |                             |
     /                             /

     |-------5--------|  |3|           |--3--| |--3---|
  a  S  S  S  T a    +S. Q E Q     Q   E  E  E E E  S S
|-9-12--9-(9)-9-----------------|------------------------|
|---------12----7b9==(7)r7------|------------------------|
|--------------------------9----|---------------------9--|
|-------------------------------|------------------11----|
|-------------------------------|------9-10-11-7-7-------|
|-------------------------------|--------------0-0-------|


  Dmaj7
        H.                    +H.
        |                      |
        /                      /

        |---3----|
  a    +Q  a    +E  H         +H.
|---------------------------|--------|
|-7b9==(7)r7b9==(7)r7b9=====|=(7)----|
|---------------------------|--------|
|---------------------------|--------|
|---------------------------|--------|
|---------------------------|--------|


  C#m7
  H.
  |
  /

  |-------3-------|
  E   S  S  T  T  S  T  T  S  T  T  S  T  T  S  S a  S
|----------11-------11---------------------------------|
|----12-14----14-12----12-11-14-12-11-12-11----12-9s12-|
|-------------------------------------------13---------|
|------------------------------------------------------|
|------------------------------------------------------|
|------------------------------------------------------|


  +H.
   |
   /

                     |-3-|  |---------5---------|  |--3---|
   T   T  T  T      +S   E  S  S  a      +S   S S  S S  E E
|------------------------------------------------------------|
|-12--12-11--------------------------------------------------|
|-----------13b15==(13)r13-11-11-11b13==(11)r11-9-11-9-------|
|------------------------------------------------------11-9--|
|------------------------------------------------------------|
|------------------------------------------------------------|


  Dmaj7
         H.                 +H.
         |                   |
         /                   /

                                   |----3----|
  a     +S  T T E E  E Q     H     Q  S  T.  X
|-------------------------|--------------------|
|-------------------------|----------11-12--14-|
|-------------------------|--------------------|
|-----------------x\------|--------------------|
|-9b11==(9)r9-7-9-x\------|--------------------|
|-------------------------|--------------------|


  C#m7
   H.
   |
   /

   |-------3-------|    |---3---|  |--3--|
   T  S  T  S  S S S a  S. T  E E  E  E  E
|-11--9--------------9-11--9----9-11-------|
|-------12-11-11---x---------12------12-12-|
|------------------------------------------|
|------------------------------------------|
|------------------------------------------|
|------------------------------------------|


    +H.
     |
     /

     |-----3-----|
  a  E   E  T  T S S  T S S. a    +S  S S S
|--------------------------------------------|
|-9-12--12-12-11-9-9-12-9-7--7b9==(7)r7-5-7--|
|--------------------------------------------|
|--------------------------------------------|
|--------------------------------------------|
|--------------------------------------------|


  Dmaj7
  H.                                +H.
  |                                  |
  /                                  /

  |----3-----|  |----6----| |-3-|          |----3-----|
  E  E a    +E  S S S S S S E e E    H     E  S  E  T T
|---------------------------------|-------------------9-|
|---------------------------------|----------12----12---|
|-6--4----------------------------|-------------11------|
|------4b6==(4)r4-2-4-2-4-2---x---|---------------------|
|---------------------------4-x---|---------------------|
|-----------------------------x---|---------------------|


  C#m7
   H.
   |
   /

   |4:2|  |---3---|          |3-|   |--3--|  |-4:3-|
   S   S  S  S  T T  S  S S  T  S  +S   S S  E  S  S
|-----------------9-----------------------9----------|
|-12--12-12----12---12-12---12---------12---12-12-12-|
|-----------11-----------------11-(11)------------11-|
|----------------------------------------------------|
|----------------------------------------------------|
|----------------------------------------------------|


   +H.
    |
    /

    |------------------------5:6-------------------------|
    E   T  S  T  a      +T   S  T  a      +T   S T  T S  T
|-----------------------------------------------------------|
|-/12--12-11------------------------------------------------|
|------------13-13b15==(13)r13-11-11b13==(11)r11-9-11-9-----|
|---------------------------------------------------0---11--|
|-----------------------------------------------------------|
|-----------------------------------------------------------|


  Dmaj7
  H.                      +H.
  |                        |
  /                        /

  |-----3------|
  E  a     +E  E +H        W
|-----------------------|--------||
|-----------------------|--------||
|-----------------------|--------||
|-9---------------------|--------||
|----9b11==(9)r9-(9)----|--------||
|-----------------------|--------||


  G5
 4/8         3/8        12/8
  H           +Q.        +W               +H
  |            |          |                |
  /            /          /                /

  E  E E  E    E   E E    E E E E E E E E  E E E E
|-----------|--8--12-8-|--6------------------------|
|------8-11-|----------|----8-6-5------------------|
|-9-10------|----------|----------5-3--------------|
|-----------|----------|--------------5-3--2-------|
|-----------|----------|---------------------3-1-0-|
|-----------|----------|---------------------------|


  D5
 7/8                 7/4
  H           +Q.     +W                   +H.
  |            |       |                    |
  /            /       /                    /

                                |-3-|
    E E E E E  E  E    E E Q.   S S S +H        E a  Q.
|-------------------|------------------------------------|
|-------------------|------------------------------------|
|-------------------|--9---9----9-7-9-(9)-------9-9s16---|
|-------0-3-2--0----|------------------------------------|
|---1-3-------------|------------------------------------|
|-------------------|------------------------------------|


  +W                                 +H.
   |                                  |
   /                                  /

                |---15:8----|         |-3--|
   Q.    S.  T  S.  T  T  T T.  Q.    E  E E T T T T T T T T T T T T T T  S
|--------------------------------------------------------5-5-7-7-7-7-7-7-10--|
|--------------------------------------------5-5-5-5-5-5---------------------|
|-14----14--14s10--10-14-10-9--10-----4--4-4---------------------------------|
|----------------------------------------------------------------------------|
|----------------------------------------------------------------------------|
|----------------------------------------------------------------------------|


  +W                               +H.
   |                                |
   /                                /

           |3| |-3-|     |3|     |---4:5---|                 |-4:3-|
   S  E  S E S S S S +E  E S E.. T     T T T T T T T T T T T E E E E
|-10-10-10-7-7p5---5-(5)-5-5p3---3h====5p3p0h3h5p3p0h3h5p3p0-3-3-3-3-|
|----------------3---------------------------------------------------|
|--------------------------------------------------------------------|
|--------------------------------------------------------------------|
|--------------------------------------------------------------------|
|--------------------------------------------------------------------|


  +W                                    +H.
   |                                     |
   /                                     /

                  |-3-| |-3-| |------7:6------|             |-----9:8------|
   S S T T T T Q  E E E S S S T T T T T     T T  S  +S   S  S  S  E  S  S  E.
|--3s1-1-3-1-0-1----------------5-5-7-7-----7-7-10-(10)-10-10-12-10------------|
|-------------------------5-5-5-------------------------------------12-10-12---|
|-------------------4-4-4------------------------------------------------------|
|------------------------------------------------------------------------------|
|------------------------------------------------------------------------------|
|------------------------------------------------------------------------------|


  +W                                                      +H.
   |                                                       |
   /                                                       /

   |--3--|  |--3--| |3|
   S  S  S  S  S  S S E T  T  T  T E E T  T  T  T T T  S  +S   T  T  S  S  T  T  S  E  +E   E
|----10----10-12-10s7-5-7-10-12-10-7-5-7-10-12-10-7-5-10-(10)-10-------10---------------------|
|-12----12-------------------------------------------------------12-12----12-10-12-10-(10)-10-|
|---------------------------------------------------------------------------------------------|
|---------------------------------------------------------------------------------------------|
|---------------------------------------------------------------------------------------------|
|---------------------------------------------------------------------------------------------|


  +W                                    +H.
   |                                     |
   /                                     /

   |3| |3| |3| |3|                              |3|
   S E E Q E S E S  +E    E   +T   S S.     S E E S S S S S S S
|--5s1-1-1-1-1-0-0-([0])-[0]-([0])-0-1------0-0-1-0---0-1-0---0-|
|---------------------------------------------------0-------0---|
|---------------------------------------------------------------|
|---------------------------------------------------------------|
|---------------------------------------------------------------|
|---------------------------------------------------------------|


  +W                   +H.
   |                    |
   /                    /

   E S E E S E E +E  E  E  E    +Q   Q
|--1-0-1-1-0-0-0-(0)-------------------|
|--------------------3--3--3b5==(3)r=1-|
|----0---------------------------------|
|----0---------------------------------|
|--------------------------------------|
|--------------------------------------|


  +W                                      +H.
   |                                       |
   /                                       /

           |---5----|  |----5-----| |3|
   S a    +T  T T T T +E  E E S S E Q E S +H.
|---------------0--------------------------------*|
|---------------0-----------------3--------------*|
|--5-5b7==(5)r5-0-5-4-(4)-4-4-5-4-2-4-2-2-(2)----*|
|------------------------------------------------*|
|------------------------------------------------*|
|------------------------------------------------*|


Duration Legend
---------------
W - whole; H - half; Q - quarter; E - 8th; S - 16th; T - 32nd; X - 64th; a - acciaccatura
+ - note tied to previous; . - note dotted; .. - note double dotted
Uncapitalized letters represent notes that are staccato (1/2 duration)
Irregular groupings are notated above the duration line
Duration letters will always appear directly above the note/fret number it represents the
duration for.  Duration letters with no fret number below them represent rests.  Multi-
bar rests are notated in the form Wxn, where n is the number of bars to rest for.  Low
melody durations appear below the staff

Tablature Legend
----------------
 h   - hammer-on
 p   - pull-off
 b   - bend
 pb  - pre-bend
 r   - bend release (if no number after the r, then release immediately)
 /\  - slide into or out of (from/to "nowhere")
 s   - legato slide
 S   - shift slide
  - natural harmonic
[n]  - artificial harmonic
n(n) - tapped harmonic
 ~   - vibrato
 tr  - trill
 T   - tap
 TP  - trem. picking
 PM  - palm muting
\n/  - tremolo bar dip; n = amount to dip
 \n  - tremolo bar down
 n/  - tremolo bar up
/n\  - tremolo bar inverted dip
 =   - hold bend; also acts as connecting device for hammers/pulls
 <>  - volume swell (louder/softer)
 x   - on rhythm slash represents muted slash
 o   - on rhythm slash represents single note slash

Misc Legend
-----------
 |  - bar
||  - double bar
||o - repeat start
o|| - repeat end
*|  - double bar (ending)
 :  - bar (freetime)
 $  - Segno
 &  - Coda
Tempo markers -  = BPM(8/16=s8/s16), where s8 = swing 8ths, s16 = swing 16ths


Добавлено: 11.03.2012
Другие материалы по этой песне:

Страница создана 11.03.2012
http://primanota.ru/frank-zappa/black-napkins-chords.htm
Привет, Гость.
Предлагаем пройти революционный курс по гитаре.
Подарок от PrimaNota.Ru, забирай!