PrimaNota.ru - самый крупный в мире бесплатный архив песенных текстов, аккордов, табулатур и нот


Duane Eddy - Because Theyre Young - таба, бас-таба, видео

Регистрация Запомнить меня
Войти через:  Facebook Google Twitter Vk Yandex Mail.ru

Duane Eddy - Because Theyre Young - таба, бас-таба, видео

Печатать
Просмотров: 144
Уроки эстрадного вокала в Санкт-Петербурге
BECAUSE THEY'RE YOUNG

As recorded by Duane Eddy
(From the 1960 Album $1,000,000 WORTH OF TWANG)

Music by Don Costa
Arranged by Duane Eddy

Transcribed by Slowhand


           E                    D                    A                    B
      x x x 4 5 4          x x 0 2 3 2          x x x 6 5 5          x x x 8 7 7

          DX                    C                   F#7                  B7
    x x x 11 10 10         x x x 9 8 8          x x x 3 5 2          x x x 4 4 5

           G                    F                   B5                  DVII
    x x x 12 12 10        x x x 10 10 8         x 2 4 x x x          x x 7 7 7 x

          CV
      x x 5 5 5 x


Gtr I (E A D G B E) - 'Electric Guitar '
Gtr II (E A D G B E) - 'Electric Guitar '
Gtr III (E A D G B E) - 'Electric Baritone Guitar - One octave lower than standard tuning'
Gtr IV (E A D G B E) - 'Strings'


  Q=122
  E                D                E
 5/4                               4/4
  Gtr II
  W        +E  E   W        +E  E   E. S E E +E E Q     E. S E E +E E Q
  |         |      |         |      |  | | |  | | |     |  | | |  | | |
  /         /      /         /      /  / / /  / / /     /  / / /  / / /

  Gtr I
  W        +E  E   W        +E  E   Q    E E  E E E E   Q    E E  E E E  E
|----------------|----------------|-------------------|---------------------||
|----------------|----------------|-------------------|---------------------||
|----------------|----------------|-------------------|---------------------||
|-6--------(6)---|-4--------(4)---|-------------------|---------------------||
|----------------|----------------|--------0--1h2-1h2-|--------0--1h2-1h=2--||
|----------------|----------------|-0----4------------|-0----4--------------||
|
| Gtr III                                               Gtr IV
| W                W                W                   H         Q   E  E
|----------------|----------------|-------------------|---------------------||
|----------------|----------------|-------------------|---------------------||
|----------------|----------------|-1-----------------|-----------------13--||
|----------------|----------------|-2-----------------|---------------------||
|----------------|----------------|-------------------|-----------------11--||
|----------------|----------------|-------------------|---------------------||


  E                        A          B          E
   E. S  E E +E E   Q       E. S  E E  Q   Q      E. S  E E +E E Q
   |  |  | |  | |   |       |  |  | |  |          |  |  | |  | | |
   /  /  / /  / /   /       /  /  / /  /          /  /  / /  / / /

   Q     E E  E E   E  E    Q     E E  Q   Q      Q     Q    Q   Q
|------------------------|---------------------|--------------------|
|------------------------|---------------------|--------------------|
|------------------------|---------------------|--------------------|
|------------------------|-----------------1---|--2-----------------|
|----------0--1h2---1h=2-|--0-----4-4--2-------|--------2-----------|
|--0-----4---------------|---------------------|-------------4---0--|
|
| Gtr IV
|  Q     Q    Q    +E  E    Q     Q    Q.    E    Q     Q    Q   Q
|-------12---------------|-------12------------|-12-----------------|
|-12---------12---(12)-9-|-12---------12-------|-------12----9------|
|--------9---------------|--------9------------|--9--------------9--|
|--9----------9----(9)-6-|--9----------9-------|--------9----6------|
|------------------------|---------------------|-----------------7--|
|------------------------|---------------------|--------------------|


  DX           C DX    B                 A B
   E S S e e E E E E     E  S S e e   E  E E E
   |   | | |   | |       |    | | |      | |
   /   / / /   / /       /    / / /      / /

   E S S E E E E E E     E  S S E E   E  E E E
|--------------------|----------------------------|
|--------------------|----------------------------|
|--------------------|----------------------------|
|--------------------|----------------------------|
|--5---5-5-5---3-5---|---2----2-2-2------0-2------|
|--------------------|----------------------------|
|
|  W                    +H           +Q.     E
|--------------------|----------------------------|
|--------------------|----------------------------|
|-11-----------------|-(11)---------(11)----------|
|--------------------|----------------------------|
|--9-----------------|--(9)----------(9)----------|
|--------------------|----------------------------|


  E                       A
   E. S  E E   E  E E E   E. S  E E   E  E Q
   |  |  | |   |  | |     |  |  | |   |  | |
   /  /  / /   /  / /     /  /  / /   /  / /

   Q     E E   Q    Q     Q     E E   Q    Q
|-----------------------|----------------------|
|-----------------------|----------------------|
|-----------------------|----------------------|
|--2--------------------|-2-------2---4----2---|
|-------------------2---|-0-----4--------------|
|--------0-0---4--------|----------------------|
|
|  Q     Q    +Q.     E   Q     Q    +Q.     E
|-----------------------|-9----12---(12)-------|
|-------12---(12)-------|----------------------|
|-13--------------------|-6-----9----(9)-------|
|--------9----(9)-------|----------------------|
|-11--------------------|----------------------|
|-----------------------|----------------------|


  F#7           B7          E
   E. S   Q      E E Q       E. S  E E  E E E E
   |  |   |      | |         |  |  | |  | | |
   /  /   /      / /         /  /  / /  / / /

   H             Q   E  E    Q     Q    E E Q
|-------------------------|----------------------|
|-------------------------|----------------------|
|-------------------------|--------1-------------|
|-----------------------1-|--2-------------------|
|----------------2---4----|-----------------2----|
|-------------------------|-------------4-4------|
|
|  Q     +E   E  Q   E  E    Q     Q    H
|-14----(14)-12-11---9-11-|-12----16-------------|
|-------------------------|------------12--------|
|-11----(11)--9--8---6--8-|--9----13-------------|
|-------------------------|-------------9--------|
|-------------------------|----------------------|
|-------------------------|----------------------|


  G              F G     E                 D E
    E  S S e e E E E E     E  S S e e   E  E E E
    |    | | |   | |       |    | | |      | |
    /    / / /   / /       /    / / /      / /

    E  S S E E E E E E     E  S S E E   E  E E E
|----------------------|-------------------------|
|----------------------|-------------------------|
|----------------------|-------------------------|
|---5--------5---3-5---|-------------------------|
|--------5-5-----------|---2----2-2-2------0-2---|
|----------------------|-------------------------|
|
|  +W                     +H           +H
|----------------------|-------------------------|
|-(12)-----------------|-(12)---------(12)-------|
|----------------------|-------------------------|
|--(9)-----------------|--(9)----------(9)-------|
|----------------------|-------------------------|
|----------------------|-------------------------|


        A      B         E
   E.   S  E E  E E Q    E. S Q   E E Q
        |  |    | | |    |  | |   | | |
        /  /    / / /    /  / /   / / /

   E  Q      E  E E Q    Q    E E E E E E
|----------------------|------------------|
|----------------------|------------------|
|----------------------|------------------|
|----------------------|------------------|
|-----0------4--4-2-2--|--------0-1h2-1h2-|
|----------------------|-0----4-----------|
|
|  Q       Q    Q   Q    W
|----------------------|------------------|
|-14-------------------|------------------|
|---------14---11---8--|-9----------------|
|-11-------------------|------------------|
|---------12----9---6--|-7----------------|
|----------------------|------------------|


    B                E                  A         B        E
  e E E E E E E E    E. S E E Q   Q      E. S E E E E Q    E. S E E E E E E
  | | | | | | | |    |  | | | |   |      |  | | | | | |    |  | | | | | |
  / / / / / / / /    /  / / / /   /      /  / / / / / /    /  / / / / / /

  E E E E E E E E    Q    E E E E E E    Q    E E Q   Q    Q    Q   Q   Q
|-----------------||------------------|------------------|-------------------|
|-----------------||------------------|------------------|-------------------|
|-----------------||------------------|------------------|-------------------|
|-----------1-----||------------------|--2------------1--|------2------------|
|---2-2-2-2-2-2---||--------0-1h2-1h2-|-------4-4-2------|----------2--------|
|---------------0-||-0----4-----------|------------------|-0------------4----|
|
| Gtr III
| H       Q   E E    Q    Q   H         +H        H        Q    Q   Q   Q
|-----------------||------0-----------|------------------|-0-----------------|
|-----------------||-0--------0-------|-(0)--------------|------0------------|
|---------------1-||------------------|------------------|----------1--------|
|-----------------||------------------|------------------|--------------2----|
|-----------------||------------------|------------------|-------------------|
|-----------------||------------------|------------------|-------------------|


  DVII        CVDVII  B           A B
  E S S e e E E E E   E S S e e E E E E
  |   | | |   | |     |   | | |   | |
  /   / / /   / /     /   / / /   / /

  E S S E E E E E E   E S S E E E E E E
|-------------------|-------------------|
|-------------------|-------------------|
|-------------------|-------------------|
|-4---0-0-4---2-----|-4-------4---2-----|
|-5-------5-----5---|-2---2-2-2---0-2---|
|-------------------|-------------------|
|
| H         H         W
|-------------------|-------------------|
|-------------------|-------------------|
|-------------------|-------------------|
|-4-----------------|-------------------|
|-------------------|-------------------|
|-------------------|-------------------|


  E                    A
  E. S E E E E  E  E   E. S E E E  E E E
  |  | | | | |  |      |  | | | |  | |
  /  / / / / /  /      /  / / / /  / /

  Q    Q   Q    Q      Q    E E Q    Q
|--------------------|--------------------|
|--------------------|--------------------|
|--------------------|--------------------|
|--------------------|----------4----2----|
|---------------2----|-0----4-0-----------|
|-0----4---0---------|--------------------|
|
| Q    Q   Q   +E  E   Q    Q   Q.     E
|--------------------|------0---0---------|
|------0---0---(0)-0-|-2------------------|
|-1------------------|--------------------|
|--------------------|--------------------|
|--------------------|--------------------|
|--------------------|--------------------|


  F#7     B7         E                  G           F G     B           A B
  Q   Q   E  E Q     E. S E E E E E E   E S S e e E E E E   E S S e e E E E E
  |   |   |  | |     |  | | | | | |     |   | | |   | |     |   | | |   | |
  /   /   /  / /     /  / / / / / /     /   / / /   / /     /   / / /   / /

  Q.    E Q.     E   Q    Q   Q   Q     E S S E E E E E E   E S S E E E E E E
|------------------|------------------|-------------------|--------------------|
|------------------|------------------|-------------------|--------------------|
|------------------|------------------|-------------------|--------------------|
|------------------|------------------|-5---5-5-5---3-5---|--------------------|
|---------2--------|------2-------2---|-------------------|-2---2-2-2---0-2----|
|-2----------------|-0--------4-------|-------------------|--------------------|
|
| Q.    E Q    E E   Q    Q   H         W                   W
|-2-----0----------|-0----4-----------|-------------------|--------------------|
|---------4----2-4-|----------0-------|-------------------|--------------------|
|------------------|------------------|-------------------|--------------------|
|------------------|------------------|-------------------|--------------------|
|------------------|------------------|-------------------|--------------------|
|------------------|------------------|-------------------|--------------------|


  A        B            E
  E. S E E E E E E   E. S E E E E Q
  |  | | | | | |        | |   | | |
  /  / / / / / /        / /   / / /

  Gtr I
  Q    E E Q   Q     Q    E E E E E E
|------------------|------------------|
|------2-2---------|------------------|
|------------------|------------------|
|------------------|------------------|
|-0--------2---2---|--------0-1h2-1h2-|
|------------------|-0----4-----------|
|
| Gtr III
| Q    Q   Q   Q     W
|------------------|------------------|
|-2----------------|------------------|
|------2-----------|------------------|
|----------4S==1---|-2----------------|
|------------------|------------------|
|------------------|------------------|
|
| Gtr IV
| W                  W
|------------------|------------------|
|------------------|------------------|
|------------------|------------------|
|------------------|------------------|
|------------------|------------------|
|------------------|------------------|


    B5                        E
  E E E E E    E   E   E      E. S  E E  Q     Q
    | | | |    |   |   |      |  |  | |  |     |
    / / / /    /   /   /      /  /  / /  /     /

  E E E E E    E   Q          Q     E E  E E   E  E
|--------------------------||------------------------|
|--------------------------||------------------------|
|--------------------------||------------------------|
|--------------------------||------------------------|
|---2-2-2-2----2---2-------||---------0--1h2---1h=2--|
|--------------------------||-0-----4----------------|
|
| W                           H          H
|--------------------------||------------------------|
|--------------------------||------------------------|
|--------------------------||------------------------|
|--------------------------||------------------------|
|--------------------------||------------------------|
|--------------------------||-0----------------------|
|
| H       S  S S S S S S S    Q     Q    Q    +E  E
|----------------------5-6-||-7----12----------------|
|------------------7-9-7-7-||-9----12---12---(12)-9--|
|--------------8-9-8-9-----||-----------13---(13)-9--|
|---------9-11-------------||------------------------|
|--------------------------||------------------------|
|--------------------------||------------------------|


  A          B           E
   E. S  E E  E  E Q      E. S  E E E E  E     E
   |  |  | |  |  | |      |  |  | | | |  |
   /  /  / /  /  / /      /  /  / / / /  /

  Gtr I
   Q     E E  Q    Q      Q     Q   Q    Q
|----------------------|----------------------------|
|----------------------|----------------------------|
|----------------------|----------------------------|
|------------------1---|--2-------------------------|
|--0-----4-4--2--------|--------2-------------------|
|----------------------|------------4----0----------|
|
| Gtr IV
|  Q     Q    Q.     E    Q     Q   Q    S  S  S  S
|-------12---11--------|-12-------------------11-12-|
|-12----14---12--------|-------12---9---12-14-------|
|-14----14---14--------|-13--------------------8--9-|
|----------------------|-------14---9----9-11-------|
|----------------------|----------------------------|
|----------------------|----------------------------|


  D             C D     B                 A B
   E  S S e e E E E E     E  S S e e   E  E E E
   |    | | |   | |       |    | | |      | |
   /    / / /   / /       /    / / /      / /

   E.   S E E E E E E     E  S S E E   E  E E E
|---------------------|--------------------------|
|---------------------|--------------------------|
|---------------5-7---|--------------------------|
|--7--------7---------|--------------------------|
|--5----5-5-5---3-5---|---2----2-2-2------0-2----|
|---------------------|--------------------------|
|
|  W                     +H           +Q.     E
|-14------------------|-(14)---------(14)--------|
|---------------------|--------------------------|
|-11------------------|-(11)---------(11)--------|
|---------------------|--------------------------|
|---------------------|--------------------------|
|---------------------|--------------------------|


  E                     A
   E. S  E E  E E E E    E. S  E E  E E  E       E
   |  |  | |  | | |      |  |  | |  | |  |
   /  /  / /  / / /      /  /  / /  / /  /

   Q     E E  E E Q      Q     E E  Q    E       E
|---------------------|----------------------------------|
|---------------------|----------------------------------|
|---------------------|----------------------------------|
|---------------------|----------2--4----2---------------|
|-----------------2---|--0-----4-------------------------|
|--0-------0--4-4-----|----------------------------------|
|
|                                        |------5------|
|  Q     Q    H          Q     Q    Q    S  S  S    S  S
|-12----19---19-------|-21----19---17--------------------|
|-12----19---17-------|-------17---17---11-12-14---16-17-|
|---------------------|-21----18---18--------------------|
|-14----18---18-------|-19---------------8--9-11---13-14-|
|---------------------|-------16---16--------------------|
|-12----16---16-------|-17-------------------------------|


  F#7       B7           E
   Q   Q     E E  Q       E. S  E E  E E E E
   |   |     | |  |       |  |  | |  | | |
   /   /     / /  /       /  /  / /  / / /

   Q   E  E  Q    E  E    Q     Q    Q   E E
|----------------------|----------------------|
|----------------------|----------------------|
|----------------------|--------1-------------|
|--------------------1-|--2-------------------|
|------------2----4----|-----------------2----|
|--2---2--2------------|-------------4--------|
|
|  Q.     E  Q    E  E    Q     Q    H
|----------------------|-------16-------------|
|-19-----17-16------16-|-17-------------------|
|----------------18----|-------13---16--------|
|-16-----14-13------13-|-14-------------------|
|----------------16----|------------14--------|
|----------------------|----------------------|


  G            F G     B              A B
   E S S e e E E E E     E  S S e e E E E E
   |   | | |   | |       |    | | |   | |
   /   / / /   / /       /    / / /   / /

   E S S E E E E E E     E  S S E E E E E E
|--------------------|----------------------|
|--------------------|----------------------|
|--------------------|----------------------|
|--5---5-5-5---3-5---|----------------------|
|--------------------|---2----2-2-2---0-2---|
|--------------------|----------------------|
|
| Gtr III
|  W                     W
|--------------------|----------------------|
|--------------------|----------------------|
|--------------------|----------------------|
|--------------------|----------------------|
|--------------------|----------------------|
|--------------------|----------------------|
|
| Gtr IV
|  W                    +W
|--------------------|----------------------|
|--------------------|----------------------|
|-16-----------------|-(16)-----------------|
|--------------------|----------------------|
|-14-----------------|-(14)-----------------|
|--------------------|----------------------|


  A          B          E
   E. S  E E  E E E E   E. S H        Q
   |  |  | |  | | |     |  | |        |
   /  /  / /  / / /     /  / /        /

   Q     Q    Q   Q     W
|---------------------|---------------------|
|---------------------|---------------------|
|---------------------|---------------------|
|--2------------------|---------------------|
|--0----------2---2---|---------------------|
|---------------------|-0-------------------|
|
|  W                    E. S E E  E E S S E
|---------------------|-------------0-------|
|---------------------|---------------------|
|---------------------|------0-2-/4---4s2-0-|
|---------------------|-2--2----------------|
|---------------------|---------------------|
|---------------------|---------------------|
|
|  Q     Q    Q   Q     W
|---------------------|---------------------|
|---------------------|---------------------|
|-18----14---11---8---|-9-------------------|
|---------------------|---------------------|
|-16----12----9---6---|-7-------------------|
|---------------------|---------------------|


                           A        B
   E. S Q    +E E E E   E. S Q   E  E E E
      | |     | | | |      | |      | | |
      / /     / / / /      / /      / / /

   Q    H.              Q    E E Q.     E
|---------------------|-------------------|
|---------------------|-------------------|
|---------------------|-------------------|
|-------2-------------|-------------------|
|---------------------|--------4-2------2-|
|--0------------------|-------------------|
|
|  E. S E  E  H         W
|---------------------|-------------------|
|---------------------|-------------------|
|-------0--2-/4-------|-------------------|
|--2--2---------------|-------------------|
|---------------------|-------------------|
|---------------------|-------------------|
|
| +W                    Q    Q   Q    Q
|---------------------|-9----5------------|
|---------------------|----------7--------|
|-(9)-----------------|-6----6---8----8---|
|---------------------|-7----7--------9---|
|-(7)-----------------|----------9----6---|
|---------------------|-------------------|


  E
  E. S H         E   E    E. S Q    H
  |  | |         |   |    |  | |
  /  / /         /   /    /  / /

  Q    H.                 W
|----------------------|-------------------------|
|----------------------|-------------------------|
|----------------------|-------------------------|
|------2---------------|-------------------------|
|----------------------|-------------------------|
|-0--------------------|-------------------------|
|
| E. S E  E  E E S S E    E. S E E  E E E   E
|--------------0-------|-------------------------|
|----------------------|-------------------------|
|------0--2-/4---3p2-0-|-------2-2-/4-4-3---0----|
|-2--2-----------------|--2--2-------------------|
|----------------------|-------------------------|
|----------------------|-------------------------|
|
| W                      +Q.     E  Q   S S S  S
|----------------------|-------------------------|
|----------------------|------------------7-9-10-|
|-9--------------------|-(9)------------9--------|
|----------------------|------------------4-6--7-|
|-7--------------------|-(7)------------7--------|
|----------------------|-------------------------|


  A                     B                            E
   E. S E E  E  E E E    E. S E E  E E  Q             E. S Q    E E E   E
   |  | | |  |  | | |    |  | | |  | |  |             |  | |    | | |   |
   /  / / /  /  / / /    /  / / /  / /  /             /  / /    / / /   /

   E. S E E  Q    Q      Q    E E  Q    Q             Q    Q    H
|---------------------|----------------------------|----------------------|
|---------------------|----------------------------|----------------------|
|---------------------|----------------------------|----------------------|
|-----2-2---------2---|------------1----4----------|-------2--------------|
|--0------0--4--------|--2----2-2------------------|----------------------|
|---------------------|----------------------------|--0-------------------|
|
|  Q    Q    H           W                            E. S E E  E E S S E
|---------------------|----------------------------|--------------0-------|
|---------------------|----------------------------|----------------------|
|---------------------|----------------------------|-------0-2-/4---3h4-0-|
|--2------------------|----------------------------|--2--2----------------|
|---------------------|----------------------------|----------------------|
|---------------------|----------------------------|----------------------|
|
|  Q.     E  Q.     E    Q.     E  Q    E     E       W
|--9------------------|-11-------------------------|----------------------|
|-10--------10--------|-----------12---12----16----|-17-------------------|
|--6---------9--------|--8----------------------14-|----------------------|
|------------7--------|------------9----9-11-13----|-14-------------------|
|---------------------|----------------------------|----------------------|
|---------------------|----------------------------|----------------------|
                         Q.     E  Q    S  S  S  S


    E. S Q    E.   S Q         E. S E E  E E E   E     E. S E E  Q   E E
    |  | |    |    | |         |  | | |  | | |   |     |  | | |  |   | |
    /  / /    /    / /         /  / / /  / / /   /     /  / / /  /   / /

    Q    Q    H                Q    Q    H             Q    Q    H
|--------------------------|-----------------------|---------------------|
|--------------------------|-----------------------|---------------------|
|--------------------------|-----------------------|---------------------|
|--------2-----------------|--------2--------------|--------2------------|
|--------------------------|-----------------------|---------------------|
|---0----------------------|---0-------------------|---0-----------------|
|
|   E. S E E  E  E   S S E     E. S E E  E E S S E     E. S E E  E E E E
|----------------0---------|---------------0-------|---------------0-----|
|--------------------------|-----------------------|---------------------|
|--------0-2-/4------3p2-0-|--------0-2-/4---3p2-0-|--------0-2-/4---3-0-|
|---2--2-------------------|---2--2----------------|---2--2--------------|
|--------------------------|-----------------------|---------------------|
|--------------------------|-----------------------|---------------------|
|
|  +W                         +W                      +W
|--------------------------|-----------------------|---------------------|
|-(17)---------------------|-(17)------------------|-(17)----------------|
|--------------------------|-----------------------|---------------------|
|-(14)---------------------|-(14)------------------|-(14)----------------|
|--------------------------|-----------------------|---------------------|
|--------------------------|-----------------------|---------------------|


  E. S E E E E E E    E. S E E E E Q     E. S E E  E E E   E
  |  | | | | | | |    |  | | | | | |     |  | | |  | | |   |
  /  / / / / / / /    /  / / / / / /     /  / / /  / / /   /

  Q    Q   E E E E    Q    Q   H         Q    Q    E E E   E
|------------------|-------------------|---------------------*|
|------------------|-------------------|---------------------*|
|------------------|-------------------|---------------------*|
|------2---------2-|-------------------|------2------2-----2-*|
|--------------2---|--1----------------|-----------2---2-----*|
|-0----------4-----|-------4-----------|-0-------------------*|
|
| E. S E E E E E E   +E. S E E E E E E   E. S E E  E E S S E
|------------------|-------------------|-------------0-------*|
|----------------0-|-(0)-0-0-0---0-----|---------------------*|
|------0-2-3-4-3---|-----------3---3-0-|------0-2-/4---3p2-0-*|
|-2--2-------------|-------------------|-2--2----------------*|
|------------------|-------------------|---------------------*|
|------------------|-------------------|---------------------*|


Duration Legend
---------------
W - whole; H - half; Q - quarter; E - 8th; S - 16th; T - 32nd; X - 64th; a - acciaccatura
+ - note tied to previous; . - note dotted; .. - note double dotted
Uncapitalized letters represent notes that are staccato (1/2 duration)
Irregular groupings are notated above the duration line
Duration letters will always appear directly above the note/fret number it represents the
duration for.  Duration letters with no fret number below them represent rests.  Multi-
bar rests are notated in the form Wxn, where n is the number of bars to rest for.  Low
melody durations appear below the staff

Tablature Legend
----------------
 h   - hammer-on
 p   - pull-off
 b   - bend
 pb  - pre-bend
 r   - bend release (if no number after the r, then release immediately)
 /\  - slide into or out of (from/to "nowhere")
 s   - legato slide
 S   - shift slide
  - natural harmonic
[n]  - artificial harmonic
n(n) - tapped harmonic
 ~   - vibrato
 tr  - trill
 T   - tap
 TP  - trem. picking
 PM  - palm muting
\n/  - tremolo bar dip; n = amount to dip
 \n  - tremolo bar down
 n/  - tremolo bar up
/n\  - tremolo bar inverted dip
 =   - hold bend; also acts as connecting device for hammers/pulls
 <>  - volume swell (louder/softer)
 x   - on rhythm slash represents muted slash
 o   - on rhythm slash represents single note slash

Misc Legend
-----------
 |  - bar
||  - double bar
||o - repeat start
o|| - repeat end
*|  - double bar (ending)
 :  - bar (freetime)
 $  - Segno
 &  - Coda
Tempo markers -  = BPM(8/16=s8/s16), where s8 = swing 8ths, s16 = swing 16ths
Добавлено: 11.07.2015
Другие материалы по этой песне:

Страница создана 21.01.2014
http://primanota.ru/duane-eddy/because-theyre-young-chords.htm
Привет, Гость.
Предлагаем пройти революционный курс по гитаре.
Подарок от PrimaNota.Ru, забирай!