PrimaNota.ru - самый крупный в мире бесплатный архив песенных текстов, аккордов, табулатур и нот


Duane Eddy - Dance With The Guitar Man - таба, видео

Регистрация Запомнить меня
Войти через:  Facebook Google Twitter Vk Yandex Mail.ru

Duane Eddy - Dance With The Guitar Man - таба, видео

Печатать
Просмотров: 155
Уроки эстрадного вокала в Санкт-Петербурге
DANCE WITH THE GUITAR MAN

As recorded by Duane Eddy 
(Released as a Single in 1962)

Words and Music by Duane Eddy & Lee Hazelwood

Transcribed by Slowhand 


           A                    D                    E
      0 0 2 2 2 0          x 5 4 2 3 2          0 2 2 1 0 0


Gtr I (E A D G B E) - 'Duane Eddy - Electric Guitar'
Gtr II (E A D G B E) - 'Donnie Owens - Electric Guitar'


 Intro                                   1st & 2nd Verse
  Q=136(8=s8)
                                          A   A   A   A     A   A   A   A
 4/4
                                      Gtr II
  W              W                        Q   E E Q   E E   Q   E E Q   E E
                                          |   | | |   | |   |   | | |   | |
                                          o   / / o   / /   o   / / o   / /

  Gtr I
                                          PM------------------------------|
  Q  Q  E E Q    E. S E E S S S S E E     E E E E E E E E   E E E E E E E E
|--------------|----------------------||------------------|-----------------|
|--------------|----------------------||o-----------------|-----------------|
|--------------|----------------------||----------2-2-2-2-|---------2-2-2-2-|
|--------------|----------------------||--2-2-----2-2-4-2-|-2-2-----2-2-4-2-|
|-2--2--2------|----2-2-2---0---0---0-||o-0-0-3-4---------|-0-0-3-4---------|
|-0--0--0---0--|-0----4---0---0---2-4-||------------------|-----------------|
  Q  Q  Q   Q


  A   A   A   A     A   A   A   A     D   D   D   D     D   D   D   D
  Q   E E Q   E E   Q   E E Q   E E   Q   E E Q   E E   Q   E E Q   E E
  |   | | |   | |   |   | | |   | |   |   | | |   | |   |   | | |   | |
  o   / / o   / /   o   / / o   / /   o   / / o   / /   o   / / o   / /

  PM------------------------------------------------------------------|
  E E E E E E E E   E E E E E E E E   E E E E E E E E   E E E E E E E E
|-----------------|-----------------|-----------2-----|------------------|
|-----------------|-----------------|---------3-3-3-3-|---------3-3-3----|
|---------2-2-2-2-|---------2-2-2-2-|-2-2-----2-2-4-2-|-----2---2-2-4-2--|
|-2-2-----2-2-4-2-|-2-2-----2-2-4-4-|-0-0-3-4---------|-0-0-3-4----------|
|-0-0-3-4---------|-0-0-3-4---------|-----------------|------------------|
|-----------------|-----------------|-----------------|------------------|


  D   D   D   D     E   E   E   E
  Q   E E Q   E E   Q   E E Q   E E
  |   | | |   | |   |   | | |   | |
  o   / / o   / /   o   / / o   / /

  PM------------|
  E E E E E E E E   E E Q   E E E E
|-----------------|-----------------||
|---------2-2-2---|-----------------||
|-2-2-----2-2-4-2-|-----------------||
|-0-0-3-4---------|-----------------||
|-----------------|-2---------------||
|-----------------|-0---------0-2-4-||


 Pre-Chorus
  A         A   A         A       A         A      A      A
  Q         E E Q          E  E   Q         E E     Q     E     E
  |         | | |          |  |   |         | |     |     |     |
  o         / / o          /  /   o         / /     o     /     /

  E    +E   Q   E     E   +Q      E    +E   E E    +E   E E     E
|-------------------------------|------------------------------------|
|-------------------------------|------------------------------------|
|-------------------------------|------------------------------------|
|-------------------------------|------------------------------------|
|-----------0---------0---(0)---|-----------0-----------0-------0----|
|-3b4==(3)r-----3b4==(3)r-------|-3b4==(3)r---3b4==(3)r---3b4==(3)r--|


  D  D         D      D        D  D      D      D
  Q  E     E   Q       E   E   Q  E E     Q     E     E
  |  |     |   |       |   |   |  | |     |     |     |
  o  /     /   o       /   /   o  / /     o     /     /

  Q  E    +E   E E    +E   E   Q  E E    +E   E E     E
|----------------------------|----------------------------|
|----------------------------|----------------------------|
|----------------------------|----------------------------|
|--------------0-----------0-|----0-----------0-------0---|
|----3b4==(3)r---3b4==(3)r---|-4----3b4==(3)r---3b4==(3)r-|
|----------------------------|----------------------------|


  E  E   E           E       E                 E     E    E
  Q  E E Q            E  E   Q                  E  E  Q   E E
  |  | | |            |  |   |                  |  |  |   | |
  o  / / o            /  /   o                  /  /  o   / /

  Q  E E S    +S   E +E  E   S    +S   T +T  S +E  E +H
|--------------------------|-----------------------------------|
|--------------------------|-----------------------------------|
|--------------------------|-----------------------------------|
|--------------------------|-----------------------------------|
|--------------------------|-----------------------------------|
|----0---2b4==(2)r-0-(0)-0-|-2b4==(2)r-2-(4)-2-(2)-0-(0)-------|


                      Chorus
  E   E   E   E        A     A   A   A
  Q   E E Q    E  E     Q    E E Q   E E
  |   | | |    |  |     |    | | |   | |
  o   / / o    /  /     o    / / o   / /

  E E E E E E +E  E    +E  E E E E E E E
|-------------------||-------------------|
|-------------------||-------------------|
|-------------------||---------2---------|
|-------------------||---------2-4-2---2-|
|-----------------0-||-(0)-0-4-------4---|
|-0-0-0-0-2-4-(4)---||-------------------|


  A         A   A         A     A         A   A   A
  Q         E E Q         E E   Q         E E Q   E E
  |         | | |         | |   |         | | |   | |
  o         / / o         / /   o         / / o   / /

  E    +E   E E E    +E   E E   E    +E   E E E E E E
|-----------------------------|------------------------|
|-----------------------------|------------------------|
|-----------------------------|------------------------|
|-----------------------------|-----------------2-4-2--|
|-----------0-0-----------0-0-|-----------0-0-4--------|
|-4b5==(4)r-----4b5==(4)r-----|-4b5==(4)r--------------|


  D  D   D  D     D   D   D     D
  Q  E E Q  E E   Q   E E  Q    E  E
  |  | | |  | |   |   | |  |    |  |
  o  / / o  / /   o   / /  o    /  /

                        ~
  Q  Q   Q  Q     E E E E +E  E E  E
|---------------|-3s5-5-8-(8)-5-8-10-|
|-----------3---|-3s5----------------|
|-2--2---5------|--------------------|
|---------------|--------------------|
|---------------|--------------------|
|---------------|--------------------|


  E            E            E    E     E   E   E     E
   Q            E       E    Q   E E   Q   E E  Q    E   E
   |            |       |    |   | |   |   | |  |    |   |
   o            /       /    o   / /   o   / /  o    /   /

   E      +E    E      +E    E E E E   E E E E +E  E S S E
|-10b11==(10)r-10b11==(10)r-10-8-5---|-3s5-5---------------|
|----------------------------------8-|-3s5-----------------|
|------------------------------------|-------8-(8)-7-5h7p5-|
|------------------------------------|---------------------|
|------------------------------------|---------------------|
|------------------------------------|---------------------|


  1.,2.
  A   A   A                     A       A     A   A     A
  Q   E E Q                      E  E    Q    E E Q     E E
  |   | | |                      |  |    |    | | |     | |
  o   / / o                      /  /    o    / / o     / /

  E E E E S    +S   T    +T   S +E  E   +E  E E E S S E E E  3x
|-------------------------------------|----------------------||
|-------------------------------------|---------------------o||
|-------------------------------------|----------------------||
|-7-5---------------------------------|----------------------||
|-----7-5-----------------------------|-------2-------------o||
|---------7b8==(7)r-7b8==(7)r-7-(7)-5-|-(5)-0-0-0-0-0-0-2-4--||


 Outro
  3.
  A   A   A                  A
  Q   E E Q                   E   E
  |   | | |                   |   |
  o   / / o                   /   /

  E E E E S    +S   S    +S  +E   S    +S
|-------------------------------------------|
|-------------------------------------------|
|-------------------------------------------|
|-7-5---------------------------------------|
|-----7-5-----------------------------------|
|---------7b8==(7)r-7b8==(7)-(7)r-7b8==(7)--|


  A                   A                   A                   A
   Q                   E         E         Q                   E         E
   |                   |         |         |                   |         |
   o                   /         /         o                   /         /

  +S   S    +S   S    +S   S    +S   S    +S   S    +S   S    +S   S    +S   S
|------------------------------------------------------------------------------|
|------------------------------------------------------------------------------|
|------------------------------------------------------------------------------|
|------------------------------------------------------------------------------|
|------------------------------------------------------------------------------|
|-(7)r-7b8==(7)r-7b8==(7)r-7b8==(7)r-7b8==(7)r-7b8==(7)r-7b8==(7)r-7b8==(7)r---|


  A         A   A         A     A         A   A   A
  Q         E E Q         E E   Q         E E Q   E E
  |         | | |         | |   |         | | |   | |
  o         / / o         / /   o         / / o   / /

  E    +E   E E E    +E   E E   E    +E   E E E E E E
|-----------------------------|-----------------------|
|-----------------------------|-----------------------|
|-----------------------------|-----------------------|
|-----------2-2-----------2-2-|-----------------2-4-2-|
|-----------0-0-----------0-0-|-----------0-0-4-------|
|-3b4==(3)r-----3b4==(3)r-----|-3b4==(3)r-------------|


  D  D   D  D     D   D   D     D      E            E            E            E
  Q  E E Q  E E   Q   E E  Q    E  E    Q            E       E    Q            E       E
  |  | | |  | |   |   | |  |    |  |    |            |       |    |            |       |
  o  / / o  / /   o   / /  o    /  /    o            /       /    o            /       /

                        ~
  Q  Q   Q  Q     E E E E +E  E E  E    E      +E    E      +E    E      +E    E      +E
|---------------|-3s5-5-8-(8)-5-8-10-|-10b11==(10)r-10b11==(10)r-10b11==(10)r-10b11==(10)r-|
|-----------3---|-3s5----------------|-----------------------------------------------------|
|-2--2---5------|--------------------|-----------------------------------------------------|
|---------------|--------------------|-----------------------------------------------------|
|---------------|--------------------|-----------------------------------------------------|
|---------------|--------------------|-----------------------------------------------------|


  E            E            E    E
   Q            E       E    Q   E E
   |            |       |    |   | |
   o            /       /    o   / /

   E      +E    E      +E    E E E E
|-10b11==(10)r-10b11==(10)r-10-8-5----|
|----------------------------------8--|
|-------------------------------------|
|-------------------------------------|
|-------------------------------------|
|-------------------------------------|


  A    A   A       A     E   E                   E                   E
  Q    E E Q       E E   Q   E         E         Q                   E         E
  |    | | |       | |   |   |         |         |                   |         |
  o    / / o       / /   o   /         /         o                   /         /

             |-3-|
  E. S E E E S S S E E   E E S    +S   S    +S   S    +S   S    +S   S    +S   S    +S
|-5--------------------|-----------------------------------------------------------------|
|----8-5---------------|-----------------------------------------------------------------|
|--------8-7-5h7p5-----|-----------------------------------------------------------------|
|------------------7-5-|-----------------------------------------------------------------|
|----------------------|-7-5-------------------------------------------------------------|
|----------------------|-----7b8==(7)r-7b8==(7)r-7b8==(7)r-7b8==(7)r-7b8==(7)r-7b8==(7)r-|


  A  A         A      A
  Q  E     E   Q       E   E
  |  |     |   |       |   |
  o  /     /   o       /   /

  Q  E    +E   E E    +E   E
|----------------------------|
|----------------------------|
|----------------------------|
|-2------------2-------------|
|-0------------0-----------0-|
|----3b4==(3)r---3b4==(3)r---|


  A         A          A      A     D  D   D  D
  Q         E E         Q     E E   Q  E E Q  E E
  |         | |         |     | |   |  | | |  | |
  o         / /         o     / /   o  / / o  / /

  E    +E   E S    +S  +E   E E E   Q  Q   Q  E E
|---------------------------------|----------------|
|---------------------------------|-----------3-3\-|
|---------------------------------|-2--2---5-------|
|-----------2-----------------2-4-|----------------|
|-----------0---------------4-----|----------------|
|-3b4==(3)r---3b4==(3)-(3)r-------|----------------|


  D   D   D   D      E            E            E    E
  Q   E E Q   E  E    Q            E       E    Q   E E
  |   | | |   |  |    |            |       |    |   | |
  o   / / o   /  /    o            /       /    o   / /

  E E E E E E E  E    E      +E    E      +E    E E E E
|---5---5-8-5-8-10-|-10b11==(10)r-10b11==(10)r-10-8-5---|
|-5---5------------|----------------------------------8-|
|------------------|------------------------------------|
|------------------|------------------------------------|
|------------------|------------------------------------|
|------------------|------------------------------------|


  E   E   E   E     A   A   A                  A
  Q   E E Q   E E   Q   E E Q                   E      E
  |   | | |   | |   |   | | |                   |      |
  o   / / o   / /   o   / / o                   /      /

  E E E E E E Q     E E E E S    +S   S    +S  +S   E.
|-----5-----------|--------------------------------------*|
|-4s5-------------|--------------------------------------*|
|-------8s7-7-5---|--------------------------------------*|
|-----------------|-7-5----------------------------------*|
|-----------------|-----7-5------------------------------*|
|-----------------|---------7b8==(7)r-7b8==(7)-(7)r-5----*|


Duration Legend
---------------
W - whole; H - half; Q - quarter; E - 8th; S - 16th; T - 32nd; X - 64th; a - acciaccatura
+ - note tied to previous; . - note dotted; .. - note double dotted
Uncapitalized letters represent notes that are staccato (1/2 duration)
Irregular groupings are notated above the duration line
Duration letters will always appear directly above the note/fret number it represents the
duration for.  Duration letters with no fret number below them represent rests.  Multi-
bar rests are notated in the form Wxn, where n is the number of bars to rest for.  Low
melody durations appear below the staff

Tablature Legend
----------------
 h   - hammer-on
 p   - pull-off
 b   - bend
 pb  - pre-bend
 r   - bend release (if no number after the r, then release immediately)
 /\  - slide into or out of (from/to "nowhere")
 s   - legato slide
 S   - shift slide
  - natural harmonic
[n]  - artificial harmonic
n(n) - tapped harmonic
 ~   - vibrato
 tr  - trill
 T   - tap
 TP  - trem. picking
 PM  - palm muting
\n/  - tremolo bar dip; n = amount to dip
 \n  - tremolo bar down
 n/  - tremolo bar up
/n\  - tremolo bar inverted dip
 =   - hold bend; also acts as connecting device for hammers/pulls
 <>  - volume swell (louder/softer)
 x   - on rhythm slash represents muted slash
 o   - on rhythm slash represents single note slash

Misc Legend
-----------
 |  - bar
||  - double bar
||o - repeat start
o|| - repeat end
*|  - double bar (ending)
 :  - bar (freetime)
 $  - Segno
 &  - Coda
Tempo markers -  = BPM(8/16=s8/s16), where s8 = swing 8ths, s16 = swing 16ths
Добавлено: 16.06.2015
Другие материалы по этой песне:

Страница создана 18.10.2013
http://primanota.ru/duane-eddy/dance-with-the-guitar-man-chords.htm
Привет, Гость.
Предлагаем пройти революционный курс по гитаре.
Подарок от PrimaNota.Ru, забирай!