PrimaNota.ru - самый крупный в мире бесплатный архив песенных текстов, аккордов, табулатур и нот


Duane Eddy - Shazam - таба, видео

Регистрация Запомнить меня
Войти через:  Facebook Google Twitter Vk Yandex Mail.ru

Duane Eddy - Shazam - таба, видео

Печатать
Просмотров: 132
Авторы музыки: Lee Hazlewood, Duane Eddy

SHAZAM!

As recorded by Duane Eddy
(Released as a Single in 1960)

Music by Duane Eddy & Lee Hazelwood

Transcribed by Slowhand 


           E                    A                    B
      0 2 2 1 0 0          0 0 2 2 2 0          x x 4 4 4 2



Gtr I (E A D G B E) - 'Duane Eddy - Electric Guitar'
Gtr II (E A D G B E) - 'Donnie Owens - Acoustic Guitar'


 Intro
  Q=124
                E  E    A A                                 E  E    A A
 4/4
              Gtr II
  W             Q  E. S E E +E  E   W                       Q  E. S E E +E  E
                |  |  | | |  |  |                           |  |  | | |  |  |
                o  /  / o /  /  /                           o  /  / o /  /  /

  Gtr I
  H    Q  Q     Q  E. S E E +E  E   E E E.    S E E S S E   Q  E. S E E +E  E
|-------------|-------------------|---0-3b3.5-0-----------|-------------------|
|-------------|-------------------|-------------3-0-------|-------------------|
|-------------|-------------------|-----------------3p2-0-|-------------------|
|-------------|-------------------|-----------------------|-------------------|
|-------------|---------0-0-(0)-0-|-----------------------|---------0-0-(0)-0-|
|---------7\--|-0--0--0-----------|-0---------------------|-0--0--0-----------|


                       E  E    A A
  W                    Q  E. S E E +E  E
                       |  |  | | |  |  |
                       o  /  / o /  /  /

  E E E. S E E S S E   Q  E. S E E +E  E
|------------0-------|-------------------|
|--------------------|-------------------|
|-----0--2s4---4p2-0-|-------------------|
|---2----------------|-------------------|
|--------------------|---------0-0-(0)-0-|
|-0------------------|-0--0--0-----------|


                          E  E    A A
  W                       Q  E. S E E +E  E
                          |  |  | | |  |  |
                          o  /  / o /  /  /

  E S S S S S S E E E E   Q  E. S E E +E  E
|---3-0-----------------|--------------------|
|-------3p0-------------|--------------------|
|-----------3p2-0-------|--------------------|
|-----------------2-0---|--------------------|
|---------------------2-|---------0-0-(0)-0--|
|-0---------------------|-0--0--0------------|


                       Main Theme
                        E  E   E  E
  W                     Q  E E Q  E  E
                        |  | | |  |  |
                        o  / / o  /  /

  E E E. S E E S S E    Q  H      E.   S
|------------0-------||------------------|
|--------------------||------------------|
|-----0--2s4---4p2-0-||------------------|
|---2----------------||-2--2-------------|
|--------------------||-----------4----2-|
|-0------------------||------------------|


  E   E     E     E     B  B   B    B
  Q    E  E  Q    E E   Q  E E Q    E  E
  |    |  |  |    | |   |  | | |    |  |
  o    /  /  o    / /   o  / / o    /  /

  E E +Q    +E  E E E   Q  H      a E.   S
|---------------------|---------------------|
|---------------------|---------------------|
|---------------------|---------------------|
|---------------------|-4--4----------------|
|---------------2-4-2-|-----------2s4----2--|
|-4-0-(0)---(0)-------|---------------------|


  E   E     E     E     E  E   E  E
  Q    E  E  Q    E E   Q  E E Q  E  E
  |    |  |  |    | |   |  | | |  |  |
  o    /  /  o    / /   o  / / o  /  /

  E E +Q    +E  E E E   Q  H      E.   S
|---------------------|------------------|
|---------------------|------------------|
|---------------------|------------------|
|---------------------|-2--2------4----2-|
|---------------2-4-2-|------------------|
|-4-0-(0)---(0)-------|------------------|


  A   A     A  A     B     B       B     B
  Q    E  E Q  E E   Q      E    E Q      E    E
  |    |  | |  | |   |      |    | |      |    |
  o    /  / o  / /   o      /    / o      /    /

  E E +H.            E S S +S  S E E S S +S  S E
|------------------|-----------------------------|
|------------------|-----------------------------|
|------------------|-----------------------------|
|------------------|-----------------2-----------|
|-4-0-(0)----------|-2-2-2-(2)-2-2-2---2-(2)-0---|
|------------------|---------------------------3-|


  E  E   E     E     E  E    A A
  Q  E E  Q    E E   Q  E. S E E +E  E
  |  | |  |    | |   |  |  | | |  |  |
  o  / /  o    / /   o  /  / o /  /  /

  H      +E  E E E   Q  E. S E E +E  E
|------------------|-------------------|
|------------------|-------------------|
|------------------|-------------------|
|------------------|-------------------|
|------------2-4-2-|---------0-0-(0)-0-|
|-0------(0)-------|-0--0--0-----------|


                              E  E    A A
  W                           Q  E. S E E +E  E
                              |  |  | | |  |  |
                              o  /  / o /  /  /

  E E E    +S   S E E S S E   Q  E. S E E +E  E
|---0-3b4==(3)r-0-----------|--------------------|
|-----------------3-0-------|--------------------|
|---------------------3p2-0-|--------------------|
|---------------------------|--------------------|
|---------------------------|---------0-0-(0)-0--|
|-0-------------------------|-0--0--0------------|


                                  E     E    A A
  W                                 Q   E. S E E +E  E
                                    |   |  | | |  |  |
                                    o   /  / o /  /  /

  E  E  E.  S  E  E  S  S  S  S     Q   E. S E E +E  E
|----------------12-------------|----------------------|
|-------------------------------|----------------------|
|------12--14s15----15-14-12p13-|-(13)-----------------|
|---14--------------------------|----------------------|
|-------------------------------|------------0-0-(0)-0-|
|-0-----------------------------|---0---0--0-----------|


                                    E  E    A A
  W                                 Q  E. S E E +E  E
                                    |  |  | | |  |  |
                                    o  /  / o /  /  /

  E  E  E.    S  E     E  E     E   Q  E. S E E +E  E
|---12-------12-------12-------12-|--------------------|
|------15b17----15b17----15b17----|--------------------|
|---------------------------------|--------------------|
|---------------------------------|--------------------|
|---------------------------------|---------0-0-(0)-0--|
|-0-------------------------------|-0--0--0------------|


  W
  E  S  S  S  S  S  S  E  E  E  E
|---15----------------------------||
|------12-15p12-------------------||
|---------------15p14-12----------||
|------------------------14-12----||
|------------------------------14-||
|-0-------------------------------||


 Sax Solo
  E  E     E   E       E    E     E     E
  Q  E E   Q   E E     Q    E E   Q     E E
  |  | |   |   | |     |    | |   |     | |
  o  / /   o   / /     o    / /   o     / /

  Q  E S S E E E S S   E. S E S S E S S E S S
|--------------------|------------------------|
|--------------------|------------------------|
|--------------------|--------1-1-------------|
|------x-x-------x-x-|--------------------x-x-|
|----2-------x-2-----|----x-2-------x-x-2-----|
|-x--------0---------|-0----------0-----------|


  B     B   B     B     E     E     E     E        E     E   E     E
  Q     E E Q     E E   Q     E E   Q     E  E     Q     E E Q     E E
  |     | | |     | |   |     | |   |     |  |     |     | | |     | |
  o     / / o     / /   o     / /   o     /  /     o     / / o     / /

  E S S Q   E S S Q     E S S E S S E S S E.   S   E S S E E E S S Q
|---------------------|--------------------------|---------------------|
|---------------------|--------------------------|---------------------|
|---------------------|--------------------------|---------------------|
|---x-x-------x-x-----|---x-x---x-x---x-x------x-|---x-x---x---x-x-----|
|-2-----2---2-----2---|-------2-----------2------|-------2---------2---|
|---------------------|-4-----------4------------|-4---------4---------|


                                                           Interlude
  A  A   A     A     B   B   B   B       E  E   E   E       E  E    A A
  Q  E E Q     E E   Q   E E Q   E E     Q  E E Q   E E     Q  E. S E E +E  E
  |  | | |     | |   |   | | |   | |     |  | | |   | |     |  |  | | |  |  |
  o  / / o     / /   o   / / o   / /     o  / / o   / /     o  /  / o /  /  /

  Q  Q   E S S Q     E E E E E E E S S   Q  E E E E E E     Q  E. S E E +E  E
|------------------|-------------------|----------------||---------------------|
|------------------|-------------------|----------------||o--------------------|
|------------------|-------------------|----------------||---------------------|
|----------x-x-----|---x---x---x---x-x-|------2---------||---------------------|
|-0------0---------|-x---x---x---x-----|----2-------2-4-||o---------0-0-(0)-0--|
|----0---------0---|-------------------|-0------0-------||--0--0--0------------|


                  E  E    A A
  W               Q  E. S E E +E  E
                  |  |  | | |  |  |
                  o  /  / o /  /  /

  E E Q  H     3x Q  E. S E E +E  E
|--------------||-------------------|
|-------------o||-------------------|
|--------------||-------------------|
|--------------||-------------------|
|-------------o||---------0-0-(0)-0-|
|-0------------||-0--0--0-----------|


                               E  E   E  E
  W                            Q  E E Q  E  E
                               |  | | |  |  |
                               o  / / o  /  /

  PM-----------------------|
  E E  S E  S  S  S  S S E E   Q  H      E.   S
|----------------------------|-------------------|
|----------------------------|-------------------|
|----------------------------|-------------------|
|----------------------------|-2--2--------------|
|----------------------------|-----------4----2--|
|-0-0s12---12s14-16s12-9-7s0-|-------------------|


  E           E     E     E     B  B   B  B
  Q            E  E  Q    E E   Q  E E Q  E  E
  |            |  |  |    | |   |  | | |  |  |
  o            /  /  o    / /   o  / / o  /  /

  S    +S   E +Q    +E  E E E   Q  H      E.   S
|-----------------------------|------------------|
|-----------------------------|------------------|
|-----------------------------|------------------|
|-----------------------------|-4--4-------------|
|-----------------------2-4-2-|-----------4----2-|
|-3b4==(3)r-0-(0)---(0)-------|------------------|


  E           E     E     E     E  E   E  E
  Q            E  E  Q    E E   Q  E E Q  E  E
  |            |  |  |    | |   |  | | |  |  |
  o            /  /  o    / /   o  / / o  /  /

  S    +S   E +Q    +E  E E E   Q  H      E.   S
|-----------------------------|-------------------|
|-----------------------------|-------------------|
|-----------------------------|-------------------|
|-----------------------------|-2--2------4----2--|
|-----------------------2-4-2-|-------------------|
|-3b4==(3)r-0-(0)---(0)-------|-------------------|


  A   A     A  A     B     B     B   B
  Q    E  E Q  E E   Q     E E   Q   E E
  |    |  | |  | |   |     | |   |   | |
  o    /  / o  / /   o     / /   o   / /

  E E +H.            E S S E S S E E E E
|------------------|---------------------|
|------------------|---------------------|
|------------------|---------------------|
|------------------|---------------------|
|-4-0-(0)----------|-2-2-2-2-2-2-2-0-----|
|------------------|-----------------3-x-|


  E  E   E     E     E  E    A A
  Q  E E  Q    E E   Q  E. S E E +E  E
  |  | |  |    | |   |  |  | | |  |  |
  o  / /  o    / /   o  /  / o /  /  /

  H      +E  E E E   Q  E. S E E +E  E
|------------------|--------------------|
|------------------|--------------------|
|------------------|--------------------|
|------------------|--------------------|
|------------2-4-2-|---------0-0-(0)-0--|
|-0------(0)-------|-0--0--0------------|


                              E  E    A A
  W                           Q  E. S E E +E  E
                              |  |  | | |  |  |
                              o  /  / o /  /  /

  E E E    +S   S E E S S E   Q  E. S E E +E  E
|---0-3b4==(3)r-0-----------|-------------------|
|-----------------3-0-3p2-0-|-------------------|
|---------------------------|-------------------|
|---------------------------|-------------------|
|---------------------------|---------0-0-(0)-0-|
|-0-------------------------|-0--0--0-----------|


                                    E  E    A A
  W                                 Q  E. S E E +E  E
                                    |  |  | | |  |  |
                                    o  /  / o /  /  /

  E  S  S  S  S  S  S  E  E  E  E   Q  E. S E E +E  E
|---15----------------------------|-------------------|
|------12-15p12-------------------|-------------------|
|---------------15p14-12----------|-------------------|
|------------------------14-12----|-------------------|
|------------------------------14-|---------0-0-(0)-0-|
|-0-------------------------------|-0--0--0-----------|


                     E  E      A A
  W                  Q  E.   S E E +E  E
                     |  |    | | |  |  |
                     o  /    / o /  /  /

  E E E. S E E E E   Q  E  S S E E +E  E
|---0----0---------|---------------------|
|-----5----5-5-5s0-|---------------------|
|------------------|---------------------|
|------------------|---------------------|
|------------------|-----------0-0-(0)-0-|
|-0----------------|-0--0----0-----------|


                       E  E    A A
  W                    Q  E. S E E +E  E
                       |  |  | | |  |  |
                       o  /  / o /  /  /

  E E E. S E E S S E   Q  E. S E E +E  E
|------------0-------|--------------------|
|--------------------|--------------------|
|---0-0--2s3---3p2-0-|--------------------|
|--------------------|--------------------|
|--------------------|---------0-0-(0)-0--|
|-0------------------|-0--0--0------------|


                          E  E    A A
  W                       Q  E. S E E +E  E   W
                          |  |  | | |  |  |
                          o  /  / o /  /  /

  E S S S S S S E E E E   Q  E. S E E +E  E   E E E E h
|---3-0-----------------|-------------------|---0----------*|
|-------3p0-------------|-------------------|---0---0------*|
|-----------3p2-0-------|-------------------|-------0------*|
|-----------------2-0---|-------------------|--------------*|
|---------------------2-|---------0-0-(0)-0-|--------------*|
|-0---------------------|-0--0--0-----------|-0-------0----*|


Duration Legend
---------------
W - whole; H - half; Q - quarter; E - 8th; S - 16th; T - 32nd; X - 64th; a - acciaccatura
+ - note tied to previous; . - note dotted; .. - note double dotted
Uncapitalized letters represent notes that are staccato (1/2 duration)
Irregular groupings are notated above the duration line
Duration letters will always appear directly above the note/fret number it represents the
duration for.  Duration letters with no fret number below them represent rests.  Multi-
bar rests are notated in the form Wxn, where n is the number of bars to rest for.  Low
melody durations appear below the staff

Tablature Legend
----------------
 h   - hammer-on
 p   - pull-off
 b   - bend
 pb  - pre-bend
 r   - bend release (if no number after the r, then release immediately)
 /\  - slide into or out of (from/to "nowhere")
 s   - legato slide
 S   - shift slide
  - natural harmonic
[n]  - artificial harmonic
n(n) - tapped harmonic
 ~   - vibrato
 tr  - trill
 T   - tap
 TP  - trem. picking
 PM  - palm muting
\n/  - tremolo bar dip; n = amount to dip
 \n  - tremolo bar down
 n/  - tremolo bar up
/n\  - tremolo bar inverted dip
 =   - hold bend; also acts as connecting device for hammers/pulls
 <>  - volume swell (louder/softer)
 x   - on rhythm slash represents muted slash
 o   - on rhythm slash represents single note slash

Misc Legend
-----------
 |  - bar
||  - double bar
||o - repeat start
o|| - repeat end
*|  - double bar (ending)
 :  - bar (freetime)
 $  - Segno
 &  - Coda
Tempo markers -  = BPM(8/16=s8/s16), where s8 = swing 8ths, s16 = swing 16ths
Добавлено: 16.06.2015
Другие материалы по этой песне:

Страница создана 19.02.2014
http://primanota.ru/duane-eddy/shazam-chords.htm
Привет, Гость.
Предлагаем пройти революционный курс по гитаре.
Подарок от PrimaNota.Ru, забирай!