PrimaNota.ru - самый крупный в мире бесплатный архив песенных текстов, аккордов, табулатур и нот


Duane Eddy - Bonnie Come Back - таба, бас-таба, видео

Регистрация Запомнить меня
Войти через:  Facebook Google Twitter Vk Yandex Mail.ru

Duane Eddy - Bonnie Come Back - таба, бас-таба, видео

Печатать
Просмотров: 160
BONNIE COME BACK

As recorded by Duane Eddy
(From the 1959 Album THE TWANG'S THE THANG )

Music by Duane Eddy & Lee Hazlewood

Transcribed by Slowhand


Gtr I (E A D G B E) - 'Baritone Guitar - One octave lower than standard tuning'
Gtr II (E A D G B E) - 'Guitar'


  Q=134
  N.C.
 4/4
  Gtr I
  W          W          Q     E E Q  E E
|----------|----------|-9-----7-5-7--5---|
|----------|----------|----------------7-|
|----------|----------|------------------|
|----------|----------|------------------|
|----------|----------|------------------|
|----------|----------|------------------|
|
| Gtr II
|                       PM--------|
| W          W          E S S E E H
|----------|----------|------------------|
|----------|----------|------------------|
|----------|----------|-----------2------|
|----------|----------|---4-4-2-4--------|
|----------|----------|-0----------------|
|----------|----------|------------------|


  E Q.       +Q.       E      E.   S +E  E Q     E E
|--------------------------|-/9----7-(7)-5-5-----4-5-|
|-5--------------------5---|-------------------------|
|---6--------(6)-----------|-------------------------|
|--------------------------|-------------------------|
|--------------------------|-------------------------|
|--------------------------|-------------------------|
|
| PM--------------------------------------------------
| E S  S E E  E  S S E S S    E  S S  E  E E S S Q
|--------------------------|-------------------------|
|--------------------------|-------------------------|
|--------------------------|-------------------------|
|---4--4-2-4-----4-4-2-2-2-|-----4-4--2--4---4-4-----|
|-0-----------0------------|--0------------2-----2---|
|--------------------------|-------------------------|


  H               E E   Q
|-7--------------------------|
|-------------------5--------|
|----------------------------|
|----------------------------|
|----------------------------|
|----------------------------|
|
|-------------------------|
| S S S S S S S S E S S S E.
|----------------------------|
|----------------------------|
|-----------------x----------|
|-x---2-2-2-2-2-2---2-2-2-2--|
|----------------------------|
|----------------------------|


   E.   S +E  E Q   E E   E Q.         +Q.         E   E E E E Q   E E
|-/9----7-(7)-5-7---5---|----------------------------|-----7-5-4-----4-|
|---------------------7-|-5------------------------5-|-7-----------7---|
|-----------------------|---6----------(6)-----------|-----------------|
|-----------------------|----------------------------|-----------------|
|-----------------------|----------------------------|-----------------|
|-----------------------|----------------------------|-----------------|
|
|  PM----------------------------------------------------------------|
|  E  S S  E  E E E Q     E S  S S S E  E  S S S S E   Q   E E E Q   E
|-----------------------|----------------------------|-----------------|
|-----------------------|----------------------------|-----------------|
|-----------------2-2---|----------------------------|-2-----2-4-----4-|
|-----4-4--2--4-0-------|---4--4-2-2-4-----4-4-2-2-4-|-----0-----2-----|
|--0--------------------|-0-------------0------------|-----------------|
|-----------------------|----------------------------|-----------------|


                                 N.C.
  H           H                  H           E E Q    H    E E Q
|-5---------------------------||--------------------|-------------|
|-----------------------------||--------------------|-------------|
|-----------------------------||-------------2------|------4------|
|-----------------------------||-2------------------|-4-----------|
|-----------------------------||--------------------|-------------|
|-----------------------------||--------------------|-------------|
|
| PM-----------------------------------------------------------|
| E S S S S E S S S S S S S S    E S S S S E E E Q    H    E E Q
|-----------------------------||--------------------|-------------|
|-----------------------------||--------------------|-------------|
|-----------------------------||--------------------|-2----4------|
|-2-4-4-2-----2-------2-2-----||-------------2------|-------------|
|---------0-0-----0-0---0-0-0-||-0-0-0-0-0-0--------|-------------|
|-----------------------------||--------------------|-------------|


  Q  E. S E Q  E   E E Q  H      H    E E Q    H    E E Q
|----------------|-------------|-------------|--------------|
|----------------|-------------|-------------|--------------|
|-1--1--1-1----1-|-2-----------|------2------|------4-------|
|-----------4----|-------------|-2-----------|-4------------|
|----------------|-------------|-------------|--------------|
|----------------|-------------|-------------|--------------|
|
| PM----------------------------------------------------|
| Q  E. S E Q  E   E E Q  H      H    E E Q    H    E E Q
|----------------|-------------|-------------|--------------|
|----------------|-5-----------|------5------|--------------|
|-----------4----|-------------|-------------|------4-------|
|-2--2--2-2----2-|-------------|-------------|-0------------|
|----------------|-------------|-4-----------|--------------|
|----------------|-------------|-------------|--------------|


                                  N.C.
  Q  E. S E Q  E   E E Q  H       W
|----------------|-------------||-----------------------------|
|----------------|-------------||-----------------------------|
|-1--1--1-1----1-|-2-----------||-----------------------------|
|-----------4----|-------------||-----------------------------|
|----------------|-------------||-----------------------------|
|----------------|-------------||-----------------------------|
|
| PM-------------------|          PM------------------------|
| Q  E. S E Q  E   E E Q  H       S S S S S S S S E E S S S S
|----------------|-------------||-----------------------------|
|----------------|-5-----------||-----------------------------|
|----4------4----|-------------||-----2-----------2-4-2-2-----|
|-2-----2-2----2-|-------------||-2-----4-2-2-4-4-0-------4-4-|
|----------------|-------------||-----------------------------|
|----------------|-------------||-----------------------------|


  Gtr II
  PM----------------------------------------------------------|
  S S S S S S S S E S S S S S S   S S S S S S S S E S S S S S S
|-------------------------------|-------------------------------|
|-------------------------------|-------------------------------|
|-------------------------------|-----------------4-4---1-------|
|-2---4-----------2-4-----------|-2---4---------------4---------|
|-------0-0-0-0-0-----0-0-0-0-0-|-------0-0-0-0-0---------2-2-2-|
|-------------------------------|-------------------------------|


  PM--------------------------------------------------------|
  S S S S S S S S S S S S S S S S   S S S S S S E E S S S S E
|---------------------------------|----------------------------|
|---------------------------------|----------------------------|
|-4---------------4---------------|-----------------4-4--------|
|-----2-2-2-2-2-2-----2-2-2-2-2-2-|-2---4-4p2-2-4-0-----0-0-0--|
|---------------------------------|----------------------------|
|---------------------------------|----------------------------|


  PM------------------------------------------------------|
  E S S S S S S E S S S S S S   E S S +S  S E E S S +S  S E
|-----------------------------|-----------------------------|
|-----------------------------|-----------------------------|
|-----------------------------|-----------------------------|
|---2-2-2-2-2-2---2-2-2-----2-|-0-0-0-(0)-0-0---2-2-(2)-2-2-|
|---------------0-------0-0---|---------------2-------------|
|-----------------------------|-----------------------------|


                                N.C.
  Gtr I
  W                             Q.           E E E Q    Q.         E E E Q
|---------------------------||------------------------|----------------------|
|---------------------------||o-----------------------|----------------------|
|---------------------------||-----------------2------|--------------4-------|
|---------------------------||--2---------------------|-4--------------------|
|---------------------------||o-----------------------|----------------------|
|---------------------------||------------------------|----------------------|
|
| Gtr II
| PM----------------------|                             PM-----------|
| E S S S S E E S S S S S S     S  S S S +Q    E E Q    E  S S S S E H
|---------------------------||------------------------|----------------------|
|---------------------------||o----------------5------|----------------------|
|-------------2-------------||------------------------|----------------------|
|-2-4-4-2-2-4---4-2-2---2---||------------------------|-0--0-0-0-0-0---------|
|---------------------0-----||o-4----4-4-(4)----------|----------------------|
|---------------------------||------------------------|----------------------|


  Q  E. S E Q  E   E E Q  H      Q.           E E E Q
|----------------|-------------|-----------------------|
|----------------|-------------|-----------------------|
|-1--1--1-1----1-|-2-----------|----------------2------|
|-----------4----|-------------|-2---------------------|
|----------------|-------------|-----------------------|
|----------------|-------------|-----------------------|
|
| Q  E. S E Q  E   E E Q  H      S  S S S +Q    E E Q
|----------------|-------------|-----------------------|
|----------------|-5-----------|----------------5------|
|----------------|-------------|-2----2----------------|
|-2--2--2-2-2--2-|-------------|--------2-(2)----------|
|----------------|-------------|-----------------------|
|----------------|-------------|-----------------------|


                                                                Drum Solo
                                              1.
                                                                 N.C.
  Q.           E E E Q    Q  E. S Q.     E     E E Q   H         Wx8
|-----------------------|--------------------|----------------||---------||
|-----------------------|--------------------|----------------||--------o||
|----------------4------|-1--1--1--------1---|-2--------------||---------||
|-4---------------------|---------4----------|----------------||---------||
|-----------------------|--------------------|----------------||--------o||
|-----------------------|--------------------|----------------||---------||
|
| PM-------------|
| E  S S +S  S E H        H       Q   E.   S   E Q   E E E Q     Wx8
|-----------------------|--------------------|----------------||---------||
|-----------------------|--------------------|---------5------||--------o||
|-----------------------|--------------------|----------------||---------||
|-0--0-0-(0)-0-0--------|---------2---2----2-|-2-2---2--------||---------||
|-----------------------|--------------------|----------------||--------o||
|-----------------------|--------------------|----------------||---------||


  2.
                   N.C.
  E E Q  Q  E E     E.   S +E    E a E.   S +E  E   E E    Q   H
|---------------||-/9----7-(7)---5-5h7----5-(5)---|-------------------------|
|-------------5-||------------------------------7-|-5-----------------------|
|-2-------------||--------------------------------|---6\--------------------|
|---------------||--------------------------------|-------------------------|
|---------------||--------------------------------|-------------------------|
|---------------||--------------------------------|-------------------------|
|
|                   PM---------------------------------------------------|
| E E Q  H          E  E    S  S E   E  E   +Q      E S  S E E E S S S S E
|---------------||--------------------------------|-------------------------|
|-5-------------||--------------------------------|-------------------------|
|---------------||----------------------2---(2)---|------------2------------|
|---------------||-----2---------2---0------------|---4--4-2-4---4-4-2---4--|
|---------------||--0-------0--0------------------|-0------------------0----|
|---------------||--------------------------------|-------------------------|


  a E.   S +E  E +E.   S +E    E
|-7h9----7-(7)-5-(5)---4-(4)---5-|
|--------------------------------|
|--------------------------------|
|--------------------------------|
|--------------------------------|
|--------------------------------|
|
|   PM----------------------------
|   E  E    E  E  E  E    S  S E
|--------------------------------|
|--------------------------------|
|--------------------------------|
|------2-------2-----4-----------|
|---0-------0-----2-------2--2-2-|
|--------------------------------|


  Q      Q       E E   Q        E.   S +E    E a E.   S +E  E
|-7\-------------------------|-/9----7-(7)---5-5h7----5-(5)----|
|------------------5---------|------------------------------7--|
|----------------------------|---------------------------------|
|----------------------------|---------------------------------|
|----------------------------|---------------------------------|
|----------------------------|---------------------------------|
|
|----------------|         PM---------------------------|
| E  S S S S S S E S S S S E    E  E    S  S E   E  E    Q
|----------------------------|---------------------------------|
|----------------------------|---------------------------------|
|----------------------------|----------------------2----------|
|----2-2-2-2-2-----2-2-2-2---|-----2----2--------0-------------|
|----------------------------|--0----------0-0-----------------|
|----------------------------|---------------------------------|


  E E    Q       H             E.   S +E  E E.   S +E  E
|----------------------------|------7-(7)-5-4----2-(2)-4-|
|-5--------------------------|-7-------------------------|
|---6\-----------------------|---------------------------|
|----------------------------|---------------------------|
|----------------------------|---------------------------|
|----------------------------|---------------------------|
|
| PM----------------------------------------|
| E S  S S S S S E S S S S E   E  E    E  E E  E    E  E
|----------------------------|---------------------------|
|----------------------------|---------------------------|
|----------------------------|----2----2----4-------4----|
|---2--2-2-2-2-2-2-2---2-2---|-0----------0----2---------|
|--------------------0-0-----|---------------------------|
|----------------------------|---------------------------|


  H             H
|-5----------------------------||
|------------------------------||
|------------------------------||
|------------------------------||
|------------------------------||
|------------------------------||
|
| PM----------------------|
| E S S S S S S E S S S S S S
|------------------------------||
|------------------------------||
|---------------2--------------||
|-2-4-4-2---4-4---2------------||
|---------0---------0-0-0-0----||
|------------------------------||


  N.C.
  Q.           E E E Q    Q.           E E E Q    Q  E. S E Q  E
|-----------------------|-----------------------|-----------------|
|-----------------------|-----------------------|-----------------|
|----------------2------|----------------4------|-1--1--1-1----1--|
|-2---------------------|-4---------------------|-----------4-----|
|-----------------------|-----------------------|-----------------|
|-----------------------|-----------------------|-----------------|
|
| PM-----------|          PM-----------|
| E  S S +S  S E E E Q    E  S S +S  S E E E Q    Q  E. S E Q  E
|-----------------------|-----------------------|-----------------|
|----------------5------|----------------7------|-----------------|
|-----------------------|-----------------------|-4---------------|
|-2--2-2-(2)-2-2--------|-0--0-0-(0)-0-0--------|----2--2-2-2--2--|
|-----------------------|-----------------------|-----------------|
|-----------------------|-----------------------|-----------------|


  E E Q  H      Q.           E E E Q    Q.           E E E Q
|-------------|-----------------------|------------------------|
|-------------|-----------------------|------------------------|
|-2-----------|----------------2------|----------------4-------|
|-------------|-2---------------------|-4----------------------|
|-------------|-----------------------|------------------------|
|-------------|-----------------------|------------------------|
|
|                  PM--------|
| E E Q  H      E  S S +S  S E E E Q    E  S S +S  S E H
|-------------|-----------------------|------------------------|
|-5-----------|----------------5------|------------------------|
|-------------|-----------------------|------------------------|
|-------------|----2-2-(2)-2-2--------|-0--0-0-(0)-0-0---------|
|-------------|-4---------------------|------------------------|
|-------------|-----------------------|------------------------|


                                    N.C.
  Q  E. S Q.    E   E E Q  H        Q  E. S Q.    E
|-----------------|-------------||------------------|
|-----------------|-------------||o-----------------|
|-1--1--1-------1-|-2-----------||--1--1--1-------1-|
|---------4-------|-------------||----------4-------|
|-----------------|-------------||o-----------------|
|-----------------|-------------||------------------|
|
| Q  E. S E  Q  E   E E Q  H        Q  E. S E  Q  E
|-----------------|-------------||------------------|
|-----------------|-5-----------||o-----------------|
|-4----------4----|-------------||--4----------4----|
|-2--2--2-2-----2-|-------------||-----2--2-2-----2-|
|-----------------|-------------||o-----------------|
|-----------------|-------------||------------------|


  1.,2.,3.       4.
  E E Q  H     4x E E Q  H
|--------------||-------------*|
|-------------o||-------------*|
|-2------------||-2-----------*|
|--------------||-------------*|
|-------------o||-------------*|
|--------------||-------------*|
|
| E E Q  H     4x E E Q  H
|--------------||-------------*|
|-5-----------o||-5-----------*|
|--------------||-------------*|
|--------------||-------------*|
|-------------o||-------------*|
|--------------||-------------*|


Duration Legend
---------------
W - whole; H - half; Q - quarter; E - 8th; S - 16th; T - 32nd; X - 64th; a - acciaccatura
+ - note tied to previous; . - note dotted; .. - note double dotted
Uncapitalized letters represent notes that are staccato (1/2 duration)
Irregular groupings are notated above the duration line
Duration letters will always appear directly above the note/fret number it represents the
duration for.  Duration letters with no fret number below them represent rests.  Multi-
bar rests are notated in the form Wxn, where n is the number of bars to rest for.  Low
melody durations appear below the staff

Tablature Legend
----------------
 h   - hammer-on
 p   - pull-off
 b   - bend
 pb  - pre-bend
 r   - bend release (if no number after the r, then release immediately)
 /\  - slide into or out of (from/to "nowhere")
 s   - legato slide
 S   - shift slide
  - natural harmonic
[n]  - artificial harmonic
n(n) - tapped harmonic
 ~   - vibrato
 tr  - trill
 T   - tap
 TP  - trem. picking
 PM  - palm muting
\n/  - tremolo bar dip; n = amount to dip
 \n  - tremolo bar down
 n/  - tremolo bar up
/n\  - tremolo bar inverted dip
 =   - hold bend; also acts as connecting device for hammers/pulls
 <>  - volume swell (louder/softer)
 x   - on rhythm slash represents muted slash
 o   - on rhythm slash represents single note slash

Misc Legend
-----------
 |  - bar
||  - double bar
||o - repeat start
o|| - repeat end
*|  - double bar (ending)
 :  - bar (freetime)
 $  - Segno
 &  - Coda
Tempo markers -  = BPM(8/16=s8/s16), where s8 = swing 8ths, s16 = swing 16ths
Добавлено: 11.07.2015
Другие материалы по этой песне:

Страница создана 30.12.2013
http://primanota.ru/duane-eddy/bonnie-come-back-chords.htm
Привет, Гость.
Предлагаем пройти революционный курс по гитаре.
Подарок от PrimaNota.Ru, забирай!