PrimaNota.ru - самый крупный в мире бесплатный архив песенных текстов, аккордов, табулатур и нот


Duane Eddy - Cannonball - таба, видео

Регистрация Запомнить меня
Войти через:  Facebook Google Twitter Vk Yandex Mail.ru

Duane Eddy - Cannonball - таба, видео

Печатать
Просмотров: 332
Уроки эстрадного вокала в Санкт-Петербурге
-------------------------------------------------------------------------------
                            CANNONBALL - Duane Eddy
-------------------------------------------------------------------------------
Tabbed by: Superguppy
Email: superguppy[ät]gmx[döt]at

Tuning: Standard


Key of G!

Duane plays the lead guitar (riffs) only. If you like, you can play the rhythm 
guitar parts between the riffs as well. Just strum the chords:

     G-G-G-G-G   C-G

RIFF 1:

    e |----------------------|----------------------|
    B |----------------------|----------------------|
    G |----------------------|---0------------------|
    D |-----------2p0--0-0-0-|------2p0-------------|
    A |------2p0-------------|-----------2p0--------|
    E |-3-3------------------|-3--------------3-3-3-|

RIFF 2:

    e |----------------------|----------------------|
    B |----------------------|----------------------|
    G |----------------------|----------------------|
    D |----------------------|----------------------|
    A |-3-3-3-3-3-3--5-------|----------------------|
    E |-----------------3--3-|-3-3-3-3-3-3--0--2--3-|

OUTRO:

    e |---------------------|
    B |---------------------|
    G |-------------0-------|
    D |-0-0-0-0-0---2---0---|
    A |-2-2-2-2-2---3---2---|
    E |-3-3-3-3-3-------3---|

FULL SONG:

    RIFF 1
    RIFF 1 + RIFF 2
    RIFF 1 + RIFF 2
    RIFF 1 + RIFF 2
    
    (Saxophone Solo)
    
    RIFF 1 + RIFF 2
    
    (Drum Solo)
    
    RIFF 1 + RIFF 2
    
    OUTRO
    OUTRO
    OUTRO


************************************

| /   slide up
| \   slide down
| h   hammer-on
| p   pull-off
| ~   vibrato
| +   harmonic
| x   Mute note
| b   Bend
| pb  Pre-bend
| br  Bend release
| pbr Pre-bend release
| brb Bend release bend

************************************

Feel free to send me corrections via e-mail!
Добавлено: 19.04.2012
Другие материалы по этой песне:

Страница создана 19.04.2012
http://primanota.ru/duane-eddy/cannonball-chords.htm
Привет, Гость.
Предлагаем пройти революционный курс по гитаре.
Подарок от PrimaNota.Ru, забирай!