PrimaNota.ru - самый крупный в мире бесплатный архив песенных текстов, аккордов, табулатур и нот


Duane Eddy - 40 Miles Of Bad Road - таба, видео

Регистрация Запомнить меня
Войти через:  Facebook Google Twitter Vk Yandex Mail.ru

Duane Eddy - 40 Miles Of Bad Road - таба, видео

Печатать
Просмотров: 161
Авторы музыки: Al Casey

Forty Miles Of Bad Road:Duane Eddy.
#11 in UK, #9 USA and #17 R&B on JAMIE
Records in 1959.

(***Not exactly as on the newer records but the way I learned it in 1959.***)

#1. (Key of A)
----------------------------------------------------------|
----------------------------------------------------------|
------------------------2-2-2--4-4-4-2--------------------|
--2-2-2--4-4-4-2-----------------------4-0----2-3--0------|
-----------------4-0--------------------------------------|
----------------------------------------------------------|


----------------------------------------------------------|
----------------------------------------------------------|
----------------------------------------------------------|
-----------2----------------------------------------------|
---0-0-0-4---4-0-----------------0-0-2--------0-----------|
-------------------0-1-0---0-1----------0-0-1-------------|

----------------------------------------------------------|
----------------------------------------------------------|
------------------------2-2-2--4-4-4-2--------------------|
--2-2-2--4-4-4-2-----------------------4-0----2-3--0------|
-----------------4-0--------------------------------------|
----------------------------------------------------------|


----------------------------------------------------------|
----------------------------------------------------------|
----------------------------------------------------------|
-----------2----------------------------------------------|
---0-0-0-4---4-0-----------------0-0-2--------0-----------|
-------------------0-1-0---0-1----------0-0-1-------------|

SAX: A


BREAK:
----------------------------------------------------------|
----------------------------------------------------------|
----2-2-2----2-2----2-2--4-2---2--------------------------|
-----------4-----4-----------4----3-4-4-4-2-4-2-----------|
----------------------------------------------------------|
----------------------------------------------------------|


----------------------------------------------------------|
----------------------------------------------------------|
---2-2-2----2-2----2-2-4-2---2---4-4-4-4------------------|
----------4------4---------4--------------2-2-2-2---------|
----------------------------------------------------------|
----------------------------------------------------------|

SAX:

#2.
----------------------------------------------------------|
----------------------------------------------------------|
------------------------2-2-2--4-4-4-2--------------------|
--2-2-2--4-4-4-2-----------------------4-0----2-3--0------|
-----------------4-0--------------------------------------|
----------------------------------------------------------|



----------------------------------------------------------|
----------------------------------------------------------|
----------------------------------------------------------|
-----------2----------------------------------------------|
---0-0-0-4---4-0-----------------0-0-2--------0-----------|
-------------------0-1-0---0-1----------0-0-1-------------|


A fifties smash from Kraziekhat.
Добавлено: 11.08.2013
Другие материалы по этой песне:

Страница создана 11.08.2013
http://primanota.ru/duane-eddy/40-miles-of-bad-road-chords.htm
Привет, Гость.
Предлагаем пройти революционный курс по гитаре.
Подарок от PrimaNota.Ru, забирай!