PrimaNota.ru - самый крупный в мире бесплатный архив песенных текстов, аккордов, табулатур и нот


Duane Eddy - Kommotion - таба, бас-таба, видео

Регистрация Запомнить меня
Войти через:  Facebook Google Twitter Vk Yandex Mail.ru

Duane Eddy - Kommotion - таба, бас-таба, видео

Печатать
Просмотров: 150
Уроки эстрадного вокала в Санкт-Петербурге
KOMMOTION

As recorded by Duane Eddy
(From the 1960 Album  $1,000,000 WORTH OF TWANG)

Music by Duane Eddy & Lee Hazlewood

Transcribed by Slowhand


           G                    C                   D7                   Ab
      3 2 0 0 0 3          x 3 2 0 1 0          x x 0 2 1 2          4 6 6 5 4 x

          Db                   Eb                    A                    D
      x 4 6 6 6 x          x 6 8 8 8 x          x 0 2 2 2 0          x x 0 2 3 2

           E
      0 2 2 1 0 0


Gtr I (E A D G B E) - 'Donnie Owens - Acoustic Guitar'
Gtr II (E A D G B E) - 'Duane Eddy - Electric Baritone Guitar / One octave lower than standard tuning'
Gtr III (E A D G B E) - 'Corki Casey O'Dell - Electric Guitar '


  Q=120
 4/4
  Gtr II
  H    E E E E   Q      Q  S S E +E  E   Q   E E  E  E  E E
|--------------|-----------------------|--------------------|
|--------3-3-3-|-6b6.5--8--6p5p3-(3)---|-------8----(3)-----|
|--------------|-----------------------|----/7---\5--3------|
|--------------|-----------------------|----------------5-3-|
|--------------|-----------------------|--------------------|
|--------------|-----------------------|--------------------|


  G
  Gtr I
  E E E E E E E E   E E E E E E E     E
  | | | | | | | |   | | | | | | |     |
  / / / / / / / /   / / / / / / /     /

  Gtr II
  E Q   E E Q   E   E E E E E E E     E
|-----------------|-------------------3-||
|---3---5---3---5-|---3---5---3-6b6.5---||
|---4---5---4---5-|---4---5-------------||
|-5---------------|---------------------||
|-----------------|---------------------||
|-----------------|---------------------||


  G
  E E E E E E     E E   E E E    E  E E    E  E
  | | | | | |     | |   | | |    |  | |    |  |
  / / / / / /     / /   / / /    /  / /    /  /

  E E E E E E     Q     Q   E   +E  E E   +Q
|-3---3---3-6b6.5-----|-----5b6r(5)-3-----------|
|---5---5-------------|---------------5b6r(5)---|
|---------------------|-------------------------|
|---------------------|-------------------------|
|---------------------|-------------------------|
|---------------------|-------------------------|


  E  E E E E E  E   E   E E E E E E E E
  |  | | | | |  |   |   | | | | | | | |
  /  / / / / /  /   /   / / / / / / / /

  H.           +E   E   E E Q   E E E E
|---------------------|---------------3-|
|-3------------(3)-/5-|-----------3-6---|
|---------------------|-----------------|
|---------------------|-5---------------|
|---------------------|-----------------|
|---------------------|-----------------|


  C
  E E E E E E     E E   E E E    E  E E E    E
  | | | | | |     | |   | | |    |  | | |    |
  / / / / / /     / /   / / /    /  / / /    /

  E E E E E E     Q     Q   E   +E  Q   E   +E
|-3---3---3-6b6.5-----|-----5b6r(5)-3-----------|
|---5---5-------------|-----------------5b6r(5)-|
|---------------------|-------------------------|
|---------------------|-------------------------|
|---------------------|-------------------------|
|---------------------|-------------------------|


  G
  E  E E E E E  E   E   E E E E E E E E
  |  | | | | |  |   |   | | | | | | | |
  /  / / / / /  /   /   / / / / / / / /

  H.           +E   E   E E Q   E E E E
|---------------------|---------------3-|
|-3------------(3)-/5-|-----------3-6---|
|---------------------|-----------------|
|---------------------|-5---------------|
|---------------------|-----------------|
|---------------------|-----------------|


  D7                    C
  E E E     E E E E E   E E  E E  E E E E
  | | |     | | | | |   | |  | |  | | | |
  / / /     / / / / /   / /  / /  / / / /

  Q   Q       E E Q     Q    E E  E E E E
|-6---6b6.5---3-------|-------------------|
|---------------6-----|--------8----------|
|---------------------|-----/7---\5-3-----|
|---------------------|---------------5-3-|
|---------------------|-------------------|
|---------------------|-------------------|


  G
  E  E E E E E  E   E   E E E E E E E     E
  |  | | | | |  |   |   | | | | | | |     |
  /  / / / / /  /   /   / / / / / / /     /

  H.           +E   E   H       E E E     E
|---------------------|-------------------3-||
|---------------------|-----------3-6b6.5---||
|---------------------|---------------------||
|-5------------(5)----|---------------------||
|------------------/5-|---------------------||
|---------------------|-3-------------------||


  G
  E E E E E E     E E   E E E E E E E E
  | | | | | |     | |   | | | | | | | |
  / / / / / /     / /   / / / / / / / /

  E E E E E E     Q     E E E E E E Q
|-3---3---3-6b6.5-----|---3-6-3---3-----|
|---5---5-------------|---3-----6-3-----|
|---------------------|-----------------|
|---------------------|-----------------|
|---------------------|-----------------|
|---------------------|-----------------|


  E E  E E  E  E E  E   E E E E E E E     E
  | |  | |  |  | |  |   | | | | | | |     |
  / /  / /  /  / /  /   / / / / / / /     /

  E Q.     +Q    E  E   H       E E E     E
|---3------(3)--------|-------------------3-|
|-6-------------------|-----------3-6b6.5---|
|---------------------|---------------------|
|---------------------|---------------------|
|------------------/5-|---------------------|
|---------------------|-3-------------------|


  C
  E E E E E E E E   E E   E  E  E E     E   E
  | | | | | | | |   | |   |  |  | |     |   |
  / / / / / / / /   / /   /  /  / /     /   /

  E E E E E E Q     E Q     +E  E E    +E  +E
|-3---3---3-6-----|---5b6r==(5)-3--------------|
|---5-3-5---------|---------------5b6==(5)r(5)-|
|-----------------|----------------------------|
|-----------------|----------------------------|
|-----------------|----------------------------|
|-----------------|----------------------------|


  G
  E  E E E E E  E   E   E E E E E E E E
  |  | | | | |  |   |   | | | | | | | |
  /  / / / / /  /   /   / / / / / / / /

  H.           +E   E   Q   Q   E E E E
|---------------------|---------------3-|
|-3------------(3)----|-----------3-6---|
|---------------------|-----------------|
|---------------------|-----------------|
|------------------/5-|-----------------|
|---------------------|-3---------------|


  D7                    C
  E E E     E E E E E   E E  E E  E E E E
  | | |     | | | | |   | |  | |  | | | |
  / / /     / / / / /   / /  / /  / / / /

  Q   Q       E E Q     Q    E E  E E E E
|-6---6b6.5---3-------|-------------------|
|---------------6-----|--------8----------|
|---------------------|-----/7---\5-3-----|
|---------------------|---------------5-3-|
|---------------------|-------------------|
|---------------------|-------------------|


  G
  E  E E E E E  E   E   E E E E E E E E
  |  | | | | |  |   |   | | | | | | | |
  /  / / / / /  /   /   / / / / / / / /

  H.           +E   E   Q   Q   E E E E
|---------------------|---------------3-||
|---------------------|-----------3-5---||
|---------------------|-----------------||
|-5------------(5)----|-----------------||
|------------------/5-|-----------------||
|---------------------|-3---------------||


  Ab
  Q  E E +E  E E E   Q    E E +E  E E E
  |  | |  |  | | |   |    | |  |  | | |
  /  / /  /  / / /   /    / /  /  / / /

  Q  E E +E  E E E   E. S E E +Q    Q
|-4----4-(4)---4---|-4--4---4-(4)-------|
|-4--6-4-(4)-6-4-6-|-4----6-4-(4)---6---|
|----6-5-(5)-6-5-6-|-5----6-5-(5)---6---|
|----6-------------|----------------6---|
|------------------|--------------------|
|------------------|--------------------|


  E E     E E E E E   E     E E E E  E E E E
  | |     | | | | |   |     | | | |  | | | |
  / /     / / / / /   /     / / / /  / / / /

  E Q       E E E S S S S   E E E E  E E E E
|---7b7.5---4-------4-----|------------------|
|-------------7-4---------|------------------|
|-----------------7---7-6-|-4---4-6-/7-6-4---|
|-------------------------|---6------------6-|
|-------------------------|------------------|
|-------------------------|------------------|


  Db
  Q  E E +E  E E E   Q  E E +E  E E E
  |  | |  |  | | |   |  | |  |  | | |
  /  / /  /  / / /   /  / /  /  / / /

  Q  E E +E  E E E   Q  E E +Q    E E
|-4----4-(4)---4---|-4----4-(4)--------|
|-4--6-------6-4-6-|-4--6-4-(4)---6----|
|-4--6-------6---6-|----6---------6----|
|------------------|-------------------|
|------------------|-------------------|
|------------------|-------------------|


  Ab                                             Eb
  E E   E   E   E E E E   E E E E  E   E   E E   Q  E E +E  E E E
  | |   |   |   | | | |   | | | |  |   |   | |   |  | |  |  | | |
  / /   /   /   / / / /   / / / /  /   /   / /   /  / /  /  / / /

  E S S S S S S E E E E   E E E E  S S S S E E   Q  E E +E  E E E
|---7-4-------4---------|------------4---------|--------------6----|
|-------7-4-------------|----------------------|-6--6-6-(6)-6-6----|
|-----------7---7-6-4---|-----4-6-/7---7s6-4---|----6-------6-6----|
|---------------------6-|---6----------------6-|-------------------|
|-----------------------|----------------------|-------------------|
|-----------------------|----------------------|-------------------|


  Db                 Ab
  Q  E E +E  E E E   E E   E   E   E E E E   E E   E E  E E   E E
  |  | |  |  | | |   | |   |   |   | | | |   | |   | |  | |   | |
  /  / /  /  / / /   / /   /   /   / / / /   / /   / /  / /   / /

  Q  E E +Q    E E   E S S S S S S E E E E   E S S E E  E S S E E
|-4--6-4-(4)-------|---7-4-------4---------|-----------------------||
|-4--6-4-(4)---6---|-------7-4-------------|-----------------------||
|-4--6-4-(4)---6---|-----------7---7-6-4---|-----4-6-4-/7s6-4------||
|--------------6---|---------------------6-|---6--------------6-6--||
|------------------|-----------------------|-----------------------||
|------------------|-----------------------|-----------------------||


  A
  E  E   E E  E    E E E     E E E E E E E E
  |  |   | |  |    | | |     | | | | | | | |
  /  /   / /  /    / / /     / / / / / / / /

  E.   S E E +S  S E E S S   E e e e e e e e
|--------------------------|-----------------|
|-5----5---------5-7---7-7-|---5---7---5---7-|
|-6------7---------7-------|---6---7---6---7-|
|-7------7-7-(7)-----------|---7---7---7---7-|
|--------------------------|-----------------|
|--------------------------|-----------------|


  E E E   E E E E   E   E E E E E E E E
  | | |   | | | |   |   | | | | | | | |
  / / /   / / / /   /   / / / / / / / /

  E e S S e E e S S E   E e E E E e e e
|---------------------|---5-------5-----|
|---5---7-7---5-7-7-7-|---5-7-7-------7-|
|---6-----7---6---7-7-|-----7-7---------|
|---7-----7---7-------|-----------------|
|---------------------|-----------------|
|---------------------|-----------------|


  D
  E E E E E E E   E   E E E E E E E E
  | | | | | | |   |   | | | | | | | |
  / / / / / / /   /   / / / / / / / /

  E e Q   E E S S E   E e Q   E E E e
|---5---------------|---5-------------|
|---5-------5-----7-|---5-----5-7-7-7-|
|---5---------7-7-7-|---5-------7-7-7-|
|-------------------|-----------------|
|-------------------|-----------------|
|-------------------|-----------------|


  A
  E E  E    E E E E E   E E E   E E E   E   E
  | |  |    | | | | |   | | |   | | |   |   |
  / /  /    / / / / /   / / /   / / /   /   /

  E E +S  S E E E E E   E E S S e E S S S S e
|-------------5-------|-------------5---------|
|---5-(5)-5-7-5-5-7-5-|---5---5-7-5---5-7---5-|
|---6-(6)---7-6---7-6-|---6-----7-------7---6-|
|---7-(7)-------------|---------7-------7-7-7-|
|---------------------|-----------------------|
|---------------------|-----------------------|


  E                      D                 A
  E E  E  E E E E    E   E E E E E E E E   E E E E E E E E
  | |  |  | | | |    |   | | | | | | | |   | | | | | | | |
  / /  /  / / / /    /   / / / / / / / /   / / / / / / / /

  E E +E  E E E S E.     E E Q   E E E E   E Q   E E Q   S S
|----------------------|-----------------|---5---------------|
|---7-(7)-9-7-9-7-9----|---5-----5-7-7-7-|-------7-------5-5-|
|---7-(7)--------------|---5-----6-------|-------7-6---------|
|----------------------|---7-----7-------|-----------7-------|
|----------------------|-----------------|-------------------|
|----------------------|-----------------|-------------------|


                               A
  E E   E   E   E   E   E E    E  E   E E E E E E   E E   E   E   E   E   E E
  | |   |   |   |   |   | |    |  |   | | | | | |   | |   |   |   |   |   | |
  / /   /   /   /   /   / /    /  /   / / / / / /   / /   /   /   /   /   / /

  E S S S S S S S S S S E E    E.   S E E H         E S S S S S S S S S S E E
|-5-5---------------------5-||-5----5-5-----------|-------------------------5--|
|---5-5-5-5-5-5-5-5-5-5-8---||--------------------|---5-5-5-5-5-5-5-5-5-5-8----|
|---------------------------||--------------------|----------------------------|
|---------------------------||--------------------|----------------------------|
|---------------------------||--------------------|----------------------------|
|---------------------------||--------------------|----------------------------|
|
| Gtr II
| PM------------------------------------------------------------------------|
| E E   Q       E   E   E E    E  E   Q   E E E E   E E   E   E   E   E   E E
|---------------------------||--------------------|----------------------------|
|---------------------------||--------------------|----------------------------|
|---------------------------||--------------------|----------------------------|
|---7---------------7-------||----7---------7-----|---7---------------7--------|
|-------7---------------7-7-||--------7-------7-7-|-------7---7-----------7-7--|
|-5-------------5-----------||-5----------5-------|-5-------------5------------|


                                                   D
  E   E  E E E E E E   E E   E   E   E   E   E E   E   E  E E E E E E
  |   |  | | | | | |   | |   |   |   |   |   | |   |   |  | | | | | |
  /   /  / / / / / /   / /   /   /   /   /   / /   /   /  / / / / / /

  S S Q.     H         E S S S S S S S S S S E E   S S Q.     H
|---5-5--------------|-------------------------5-|-8-8-8---------------|
|--------------------|---5-5-5-5-5-5-5-5-5-5-8---|---------------------|
|--------------------|---------------------------|---------------------|
|--------------------|---------------------------|---------------------|
|--------------------|---------------------------|---------------------|
|--------------------|---------------------------|---------------------|
|
| PM----------------------------------------------------------------|
| E   E  E E E E E E   E E   E   E   E   E   E E   E   E  E E E E E E
|--------------------|---------------------------|---------------------|
|--------------------|---------------------------|---------------------|
|--------------------|---------------------------|---------------------|
|-----7--------7-----|---7---------------7-------|-----4----4---4---4--|
|--------7-7-----7-7-|-------7---7-----------7-6-|-5----------5--------|
|-5----------5-------|-5-------------5-----------|--------5-------5----|


                              A
  E E   E   E   E   E   E E   E   E E E E E E E   E E   E   E   E   E   E E
  | |   |   |   |   |   | |   |   | | | | | | |   | |   |   |   |   |   | |
  / /   /   /   /   /   / /   /   / / / / / / /   / /   /   /   /   /   / /

  E S S S S S S S S S S E E   S S E Q   H         E S S S S S S S S S S E E
|-------------------------5-|-5-5-5-------------|----------------------------|
|---5-5-5-5-5-5-5-5-5-5-8---|-------------------|---5-5-5-5-5-5-5-5-5-5-8-x--|
|---------------------------|-------------------|----------------------------|
|---------------------------|-------------------|----------------------------|
|---------------------------|-------------------|----------------------------|
|---------------------------|-------------------|----------------------------|
|
| PM----------------------------------------------------------------------|
| E E   E   E   E   E   Q     E   E Q   E E E E   E E   E   E   E   E   E E
|---------------------------|-------------------|----------------------------|
|---------------------------|-------------------|----------------------------|
|---------------------------|-------------------|----------------------------|
|---4-------4-------4---2---|-----7-------7-----|---7---------------7--------|
|-5-------------5-----------|-------7-------7-7-|-------7---7-----------7-7--|
|-------5-------------------|-5---------5-------|-5-------------5------------|


  E                     D
  E   E E E E E E   E   E E   E   E   E   E   E E
  |   | | | | | |   |   | |   |   |   |   |   | |
  /   / / / / / /   /   / /   /   /   /   /   / /

  S S E Q   H           E S S S S S S S S S S E E
|-5-5-5---------------|-------------------------5-|
|---------------------|---5-5-5-5-5-5-5-5-5-5-8---|
|---------------------|---------------------------|
|---------------------|---------------------------|
|---------------------|---------------------------|
|---------------------|---------------------------|
|
| PM--------------------------------------------|
| E   E E E E E S S E   E E   E   E   E   E   E E
|---------------------|---------------------------|
|---------------------|---------------------------|
|---------------------|---------------------------|
|-----6---6---6-4-6---|---4-------4-------4-----4-|
|-7---------7---------|-5-------------5-----------|
|-------7-------------|-------5---------------5---|


  A
  E   E    E  E   E   E   E   E
  |   |    |  |   |   |   |   |
  /   /    /  /   /   /   /   /

  S S S S +E  S S S S S S S S S S
|-5-5-5-5-(5)-5-5-5-5-5-5-5-5-5-5-|
|---------------------------------|
|---------------------------------|
|---------------------------------|
|---------------------------------|
|---------------------------------|
|
| PM-------------------------------
| E   E    E  E   E   E   E   E
|---------------------------------|
|---------------------------------|
|---------------------------------|
|----------4--------------4-------|
|-----7-------7-------7-------7---|
|-5---------------5---------------|


                                   A
  E   E    E    E   E E E     E    E  E   E   E E E E   E
  |   |    |    |   | | |     |    |  |   |   | | | |   |
  /   /    /    /   / / /     /    /  /   /   / / / /   /

  S S S S +S  S S S E E E     E    E  E   Q     H
|-5-5-5-5-(5)-5-5-5-5-5-------5-||-5--5\-------------------|
|-----------------------8b8.5---||-------------------------|
|-------------------------------||-6-(6)\------------------|
|-------------------------------||-------------------------|
|-------------------------------||-------------------------|
|-------------------------------||-------------------------|
|
|-------------------------------------------------------|
| E   E    E    E   E E E     E    E  E   S S E E E S S E
|-------------------------------||-------------------------|
|-------------------------------||-------------------------|
|-------------------------------||-------------------------|
|-------------------------------||----7-----------7--------|
|-----7---------7-----7-------7-||--------7-7-7-----7-7-7--|
|-5--------5--------5---5-------||-5------------5----------|


  E E   E   E E   E    E    E
  | |   |   | |   |    |    |
  / /   /   / /   /    /    /

  E S S E   E S S S S +S  S E
|-----5-----5-8-5---5-(5)-5-5-|
|---5---8---------8-----------|
|-----------------------------|
|-----------------------------|
|-----------------------------|
|-----------------------------|
|
| E E   S S E E   E    S  S E
|-----------------------------|
|-----------------------------|
|-----------------------------|
|---7-------------7-----------|
|-------7-7-7----------7--7-7-|
|-5-----------5---------------|


  E E     E   E E E E   E   E E E       E E E E   E
  | |     |   | | | |   |   | | |       | | | |   |
  / /     /   / / / /   /   / / /       / / / /   /

  E E     Q     H           E E E       E E E E   E
|-8-8b8.5-----------------|---5-8b8.5---5-8-5-8---5--|
|-------------------------|--------------------------|
|-------------------------|--------------------------|
|-------------------------|--------------------------|
|-------------------------|--------------------------|
|-------------------------|--------------------------|
|
| E E     S S E E E S S E   E E S     S E E E S S E
|-------------------------|--------------------------|
|-------------------------|--------------------------|
|-------------------------|--------------------------|
|---7-------------7-------|---7-------------7--------|
|---------7-7-7-----7-7-7-|-----7-----7-7-----7-7-7--|
|-5-------------5---------|-5-------------5----------|


  D
  E E E E   E E E E     E E E E   E E E E
  | | | |   | | | |     | | | |   | | | |
  / / / /   / / / /     / / / /   / / / /

  E E Q     Q   E S S   E E E S S E E E S S
|-8-8-------------5-5-|-8-8---5-5-8-----5-5-|
|---------------------|---------------------|
|---------------------|---------------------|
|---------------------|---------------------|
|---------------------|---------------------|
|---------------------|---------------------|
|
| PM-----------------------------------------
| E E E S S E E E E     E E E S S E E E E
|---------------------|---------------------|
|---------------------|---------------------|
|---------------------|---------------------|
|---4---4-4---4---4---|---4---4-4---4-------|
|-5---------5---------|-5---------5-----5---|
|-----5---------5-----|-----5---------5-----|


  A
  E E E   E E E E   E   E E E   E E E E E
  | | |   | | | |   |   | | |   | | | | |
  / / /   / / / /   /   / / /   / / / / /

  E E Q     H           E E E   E E E E E
|-8-8-----------------|---5-8---5-8-5-8-5--|
|---------------------|-----------------5--|
|---------------------|---6---------7-8----|
|---------------------|--------------------|
|---------------------|--------------------|
|---------------------|--------------------|
|
|---------------------------------|
| Q   S S E Q   S S E   Q   S S E Q   Q
|---------------------|--------------------|
|---------------------|--------------------|
|---------------------|--------------------|
|---------------------|--------------------|
|-----7-7-7-----7-7-7-|-----7-7-7----------|
|-5---------5---------|-5---------5--------|


  E                      D
  E E E     E E E  E E   E E  E E   E E E E
  | | |     | | |  | |   | |  | |   | | | |
  / / /     / / /  / /   / /  / /   / / / /

  Q   Q       E Q    E   Q    E E   E E E E
|-8---8b8.5---5--------|--------5-----------|
|-5-------------5\-----|-----/5-------------|
|-------------8--------|------------7-5-----|
|----------------------|----------------7-5-|
|----------------------|--------------------|
|----------------------|--------------------|
|
| PM-----------------------------------------
| E E E     E E E  E E   E E  E S S E E E E
|----------------------|--------------------|
|----------------------|--------------------|
|----------------------|--------------------|
|---6-------6---6----6-|---4----4-4---4-----|
|-7-----------7--------|-5----------5-----5-|
|-----7------------7---|------5---------5---|


  A
  E E E   E  E    E E   E   E  E   E   E  E  E   E   E
  | | |   |  |    | |   |   |  |   |   |  |  |   |   |
  / / /   /  /    / /   /   /  /   /   /  /  /   /   /

  Q   E   E +S  S E E   e   E.   S E   E +E  S S S S E
|-----------------5-------|----------------------------||
|---------5-(5)-5-7-5---7-|------5-7---5-(5)-----------||
|-----7---6-(6)-----6---7-|-6----6-7---6-(6)-8s7-7-5---||
|-7-----------------------|-7------------------------7-||
|-----0-------------------|----------------------------||
|-------------------------|----------------------------||
|
|----------------------------------------------------|
| E E S S E  E    E S S E   E  E   S S E  E  E   S S E
|-------------------------|----------------------------||
|-------------------------|----------------------------||
|-------------------------|----------------------------||
|---7-------------7-------|----7-------------7---------||
|-----7-7-7---------7-7-7-|--------7-7-7---------7-7-7-||
|-5----------5------------|-5-------------5------------||


  A
  E E E   E  E  E   E   E
  | | |   |  |  |   |   |
  / / /   /  /  /   /   /

                        |-3-|
  H         +E  S S S S S S S
|---------------8-5-----------|
|-------------------8-5-------|
|-----------------------8s7p5-|
|-7---------(7)---------------|
|-----------------------------|
|-----------------------------|
|
| PM---------------------------
| E E S S E  E  E   S S E
|-----------------------------|
|-----------------------------|
|-----------------------------|
|---7-----------7-------------|
|-----7-7-7---------7-7-7-----|
|-5----------5----------------|


  E E E   E    E    E E E   E E  E   E   E E E     E
  | | |   |    |    | | |   | |  |   |   | | |     |
  / / /   /    /    / / /   / /  /   /   / / /     /

  H           +E  a E E E   E Q.         E E E     E
|-------------------------|------------------------5-|
|-------------------------|----------------5-8b8.5---|
|-------------------------|--------------------------|
|-7-----------(7)---------|--------------------------|
|-----------------5h7-7-7-|-7------------------------|
|-------------------------|---0----------------------|
|
|--------------------------------------------------|
| E E S S S S  E    E E E   E E  S S S S E E E     E
|-------------------------|--------------------------|
|-------------------------|--------------------------|
|-------------------------|--------------------------|
|---7---------------7---7-|---7------------7---------|
|-----7-7-7-7---------7---|--------7-7-7-----7-----7-|
|-5------------5----------|-5------------5-----------|


  E E  E     E   E E   E   E
  | |  |     |   | |   |   |
  / /  /     /   / /   /   /

  E E +Q         E S S S S S S
|-5-5-(5)\---------5-5-5-5-5-5-|
|------------------------------|
|------------------------------|
|------------------------------|
|------------------------------|
|------------------------------|
|
| PM----------------------------
| E E  S   S S S E E   E   E
|------------------------------|
|------------------------------|
|------------------------------|
|---7--------------7-------7---|
|------7---7-7-7-------7-------|
|-5--------------5-------------|


  E E     E   E   E E   E E   E E E   E   E E E E
  | |     |   |   | |   | |   | | |   |   | | | |
  / /     /   /   / /   / /   / / /   /   / / / /

  E E     Q       Q     E E   E E Q       Q   E E
|-8-8b8.5-----------------5-|-8-8-----------------|
|---------------------------|-------------------5-|
|---------------------------|---------------------|
|---------------------------|---------------------|
|---------------------------|---------------------|
|---------------------------|---------------------|
|
|-----------------------------------------------|
| E E     S S S S E S S E E   E E S S S S E E E E
|---------------------------|---------------------|
|---------------------------|---------------------|
|---------------------------|---------------------|
|---7---------------7-7-----|---7-----------7---7-|
|---------7-7-7-7-------7-7-|-----7-7-7-7-----7---|
|-5---------------5---------|-5-----------5-------|


  E       E   E   E E E   E E
  |       |   |   | | |   | |
  /       /   /   / / /   / /

  |----3----|
  E     E   E Q     Q     E E
|-------5---------------------|
|-8b8.5---------------------5-|
|-----------------------------|
|-----------------------------|
|-----------------------------|
|-----------------------------|
|
| PM---------------------------
| E       E   S S E E S S E E
|-----------------------------|
|-----------------------------|
|-----------------------------|
|---------------------7-7-----|
|---------5---7-7-5-------7-7-|
|-5-----------------5---------|


  E    E E   E E E   E E   E   E E   E E E   E E
  |    | |   | | |   | |   |   | |   | | |   | |
  /    / /   / / /   / /   /   / /   / / /   / /

  S E.   Q     Q     E E   S S E Q     H
|---5--------------------|---5-------------------*|
|-8--------------------5-|-8---------------------*|
|----------------------6-|-----------------------*|
|------------------------|-----------------------*|
|------------------------|-----------------------*|
|------------------------|-----------------------*|
|
|----------------------------------------------|
| E    E S S E E S S E E   E   E S S E E S S E E
|------------------------|-----------------------*|
|------------------------|-----------------------*|
|------------------------|-----------------------*|
|----------------7-7-----|---------------7-7-----*|
|------5-7-7-5-------7-7-|-----5-7-7-5-------7-7-*|
|-5------------5---------|-5-----------5---------*|


Duration Legend
---------------
W - whole; H - half; Q - quarter; E - 8th; S - 16th; T - 32nd; X - 64th; a - acciaccatura
+ - note tied to previous; . - note dotted; .. - note double dotted
Uncapitalized letters represent notes that are staccato (1/2 duration)
Irregular groupings are notated above the duration line
Duration letters will always appear directly above the note/fret number it represents the
duration for.  Duration letters with no fret number below them represent rests.  Multi-
bar rests are notated in the form Wxn, where n is the number of bars to rest for.  Low
melody durations appear below the staff

Tablature Legend
----------------
 h   - hammer-on
 p   - pull-off
 b   - bend
 pb  - pre-bend
 r   - bend release (if no number after the r, then release immediately)
 /\  - slide into or out of (from/to "nowhere")
 s   - legato slide
 S   - shift slide
  - natural harmonic
[n]  - artificial harmonic
n(n) - tapped harmonic
 ~   - vibrato
 tr  - trill
 T   - tap
 TP  - trem. picking
 PM  - palm muting
\n/  - tremolo bar dip; n = amount to dip
 \n  - tremolo bar down
 n/  - tremolo bar up
/n\  - tremolo bar inverted dip
 =   - hold bend; also acts as connecting device for hammers/pulls
 <>  - volume swell (louder/softer)
 x   - on rhythm slash represents muted slash
 o   - on rhythm slash represents single note slash

Misc Legend
-----------
 |  - bar
||  - double bar
||o - repeat start
o|| - repeat end
*|  - double bar (ending)
 :  - bar (freetime)
 $  - Segno
 &  - Coda
Tempo markers -  = BPM(8/16=s8/s16), where s8 = swing 8ths, s16 = swing 16ths
Добавлено: 16.06.2015
Другие материалы по этой песне:

Страница создана 25.01.2014
http://primanota.ru/duane-eddy/kommotion-chords.htm
Привет, Гость.
Предлагаем пройти революционный курс по гитаре.
Подарок от PrimaNota.Ru, забирай!