PrimaNota.ru - самый крупный в мире бесплатный архив песенных текстов, аккордов, табулатур и нот


Duane Eddy - Boss Guitar - таба, бас-таба, видео

Регистрация Запомнить меня
Войти через:  Facebook Google Twitter Vk Yandex Mail.ru

Duane Eddy - Boss Guitar - таба, бас-таба, видео

Печатать
Просмотров: 146
Уроки эстрадного вокала в Санкт-Петербурге
BOSS GUITAR

As recorded by Duane Eddy
(From the 1963 Album DANCE WITH THE GUITAR MAN)

Words and Music by Duane Eddy & Lee Hazlewood

Transcribed by Slowhand


Gtr I (E A D G B E) - 'Duane Eddy - Lead Guitar'
Gtr II (E A D G B E) - 'Donnie Owens - Rhythm Guitar'


 Intro
  Q=166
  N.C.
 4/4
  Gtr I
  E   +E  E   +E  E    +E  E E   E   Q    +E  E    +E  E E
|------------------------------|---------------------------|
|------------------------------|---------------------------|
|------------------------------|---------------------------|
|------------------------------|---------------------------|
|------------------------------|---------------------------|
|-7b9r(7)-7b9r(7)-7pb8r(7)-5-5-|-7b8-7b8r=(7)-7pb9r(7)-5-5-|


  E   +E  E    +E  E    +E  E E
|-------------------------------|
|-------------------------------|
|-------------------------------|
|-------------------------------|
|-------------------------------|
|-7b9r(7)-7pb8r(7)-7pb8r(7)-5-5-|


                         A
                         Gtr II
  E   E    +Q   E E Q    Q  Q  E E E E   Q  E E +E  E Q
|----------------------|-5--5--5-5-5-5-|-5--5-5-(5)-5-5--||
|----------------------|-5--5--5-5-5-5-|-5--5-5-(5)-5-5--||
|----------------------|-6--6--6-6-6-6-|-6--6-6-(6)-6-6--||
|----------------------|-7--7--7-7-7-7-|-7--7-7-(7)-7-7--||
|----------------------|-7--7--7-7-7-7-|-7--7-7-(7)-7-7--||
|-7b8-7pb8r(7)--5------|-5--5--5-5-5-5-|-5--5-5-(5)-5-5--||


 1st Verse
  A               D                 A              E
  Q  E E Q  E E   Q  E E +E  E Q    Q  E E Q  Q    Q  Q  E E E E
|-5--5-5-5--5---|-5--5-5-(5)-5-5--|-5--5-5-5--5--|-7--7--7-7-7----|
|-5--5-5-5--5---|-7--7-7-(7)-7-7--|-5--5-5-5--5--|-9--9--9-9-9----|
|-6--6-6-6--6---|-7--7-7-(7)-7-7--|-6--6-6-6--6--|-9--9--9-9-9----|
|-7--7-7-7--7---|-7--7-7-(7)-7-7--|-7--7-7-7--7--|-9--9--9-9-9----|
|-7--7-7-7--7---|-5--5-5-(5)-5-5--|-7--7-7-7--7--|-7--7--7-7-7----|
|-5--5-5-5--5---|-----------------|-5--5-5-5--5--|----------------|


  A               D              A              E
  Q  E E Q  E E   Q  E E Q  Q    Q  E E Q  Q    Q  E E Q  E E
|-5--5-5-5--5---|-5--5-5-5--5--|-5--5-5-5--5--|-7--7-7-7--7----|
|-5--5-5-5--5---|-7--7-7-7--7--|-5--5-5-5--5--|-9--9-9-9--9----|
|-6--6-6-6--6---|-7--7-7-7--7--|-6--6-6-6--6--|-9--9-9-9--9----|
|-7--7-7-7--7---|-7--7-7-7--7--|-7--7-7-7--7--|-9--9-9-9--9----|
|-7--7-7-7--7---|-5--5-5-5--5--|-7--7-7-7--7--|-7--7-7-7--7----|
|-5--5-5-5--5---|--------------|-5--5-5-5--5--|----------------|


  A               D               A               E
  Q  E E Q  E E   Q  E E Q  E E   Q  E E Q  E E   Q  Q  E E Q
|-5--5-5-5--5---|-5--5-5-5--5---|-5--5-5-5--5---|-7--7--7-7-7---|
|-5--5-5-5--5---|-7--7-7-7--7---|-5--5-5-5--5---|-9--9--9-9-9---|
|-6--6-6-6--6---|-7--7-7-7--7---|-6--6-6-6--6---|-9--9--9-9-9---|
|-7--7-7-7--7---|-7--7-7-7--7---|-7--7-7-7--7---|-9--9--9-9-9---|
|-7--7-7-7--7---|-5--5-5-5--5---|-7--7-7-7--7---|-7--7--7-7-7---|
|-5--5-5-5--5---|---------------|-5--5-5-5--5---|---------------|


  A               D             N.C.
  Q  E E Q.   E   Q  Q  Q  Q    W          W
|-5--5-5-5------|-5--5--5--5--|----------|------|
|-5--5-5-5------|-7--7--7--7--|----------|------|
|-6--6-6-6------|-7--7--7--7--|----------|------|
|-7--7-7-7------|-7--7--7--7--|----------|------|
|-7--7-7-7------|-5--5--5--5--|----------|------|
|-5--5-5-5------|-------------|----------|------|


  Gtr I
  E   +E  E   +E  E   +E  E E   E   Q.    E    +E  Q
|-----------------------------|-----------------------|
|-----------------------------|-----------------------|
|-----------------------------|-----------------------|
|-----------------------------|-----------------------|
|-----------------------------|-----------------------|
|-7b8r(7)-7b8r(7)-7b8r(7)-5-5-|-7b8-7b8---7pb8r(7)-5--|


  E   +E  E   +E  E   +E  E E   E   E    +Q   E E Q
|-----------------------------|-----------------------||
|-----------------------------|-----------------------||
|-----------------------------|-----------------------||
|-----------------------------|-----------------------||
|-----------------------------|-----------------------||
|-7b8r(7)-7b8r(7)-7b8r(7)-5-5-|-7b8-7pb8r(7)--5-------||


 Guitar Solo
  A               D                         A               E
                                            |3|
  Q  E E H        Q  E E +E      E Q        Q E Q   H       S S E +H       Q
|-5--5----------|----5-8-(8)b8.5-5-8b8.5--|-5-5-----------|--------------------|
|---------------|-------------------------|---------------|-8p7p5-(5)----------|
|---------------|-------------------------|---------------|--------------------|
|---------------|-------------------------|---------------|--------------------|
|---------------|-------------------------|---------------|--------------------|
|---------------|-------------------------|---------------|--------------------|
|
| Gtr II
| Q  E E Q  E E   Q  E E +E      E Q        Q   E E Q  Q    Q      Q   E E E E
|-5--5-5-5--5---|-5--5-5-(5)-----5-5------|-5---5-5-5--5--|-7------7---7-7-7---|
|-5--5-5-5--5---|-7--7-7-(7)-----7-7------|-5---5-5-5--5--|-9------9---9-9-9---|
|-6--6-6-6--6---|-7--7-7-(7)-----7-7------|-6---6-6-6--6--|-9------9---9-9-9---|
|-7--7-7-7--7---|-7--7-7-(7)-----7-7------|-7---7-7-7--7--|-9------9---9-9-9---|
|-7--7-7-7--7---|-5--5-5-(5)-----5-5------|-7---7-7-7--7--|-7------7---7-7-7---|
|-5--5-5-5--5---|-------------------------|-5---5-5-5--5--|--------------------|


  A                       D
  S E. +Q    S E. +Q      a S E. +Q    S E. +Q
|-8p5--(5)--------------|------------------------|
|------------8p5--(5)---|------------------------|
|-----------------------|-8s7p5--(5)-------------|
|-----------------------|--------------7p5--(5)--|
|-----------------------|------------------------|
|-----------------------|------------------------|
|
| Q     E  E Q     E  E     Q     E  E Q     Q
|-5-----5--5-5-----5----|---5-----5--5-5-----5---|
|-5-----5--5-5-----5----|---7-----7--7-7-----7---|
|-6-----6--6-6-----6----|---7-----7--7-7-----7---|
|-7-----7--7-7-----7----|---7-----7--7-7-----7---|
|-7-----7--7-7-----7----|---5-----5--5-5-----5---|
|-5-----5--5-5-----5----|------------------------|


  A                      E
  S E. +Q    S E. +Q     E   +E  E E +E  E E E
|----------------------|-----------------------|
|----------------------|-----------------------|
|----------------------|-----------------------|
|----------------------|-----------------------|
|-7p5--(5)-------------|-----------------------|
|------------8p5--(5)--|-2b3r(2)-0-0-(0)-0-2---|
|
| Q     E  E Q     Q     Q       E E  Q    E E
|-5-----5--5-5-----5---|-7-------7-7--7----7---|
|-5-----5--5-5-----5---|-9-------9-9--9----9---|
|-6-----6--6-6-----6---|-9-------9-9--9----9---|
|-7-----7--7-7-----7---|-9-------9-9--9----9---|
|-7-----7--7-7-----7---|-7-------7-7--7----7---|
|-5-----5--5-5-----5---|-----------------------|


  A                     D
  E   E E E E   E E E   E   E E E E E E E
|---------------------|-------------------|
|---------------------|-------------------|
|---------------------|-------------------|
|---------------------|-------------2-4-2-|
|-------0---------0---|-------0---3-------|
|-4b5-------4b5-------|-4b5---------------|
|
| Q     E E Q     E E   Q     E E Q   E E
|-5-----5-5-5-----5---|-5-----5-5-5---5---|
|-5-----5-5-5-----5---|-7-----7-7-7---7---|
|-6-----6-6-6-----6---|-7-----7-7-7---7---|
|-7-----7-7-7-----7---|-7-----7-7-7---7---|
|-7-----7-7-7-----7---|-5-----5-5-5---5---|
|-5-----5-5-5-----5---|-------------------|


  A                   E
  Q  E   E Q  E   E   E E   +E  E E E a E E
|-------------------|-----------------------|
|-------------------|-----------------------|
|-------------------|-----------------------|
|-------------------|-----------------------|
|----------0--------|-----------------------|
|----4b5------4b5---|---2b4r(2)-0-0-0-0h2-0-|
|
| Q  E   E Q  E   E   Q      Q    E E   Q
|-5--5---5-5--5-----|-7------7----7-7---7---|
|-5--5---5-5--5-----|-9------9----9-9---9---|
|-6--6---6-6--6-----|-9------9----9-9---9---|
|-7--7---7-7--7-----|-9------9----9-9---9---|
|-7--7---7-7--7-----|-7------7----7-7---7---|
|-5--5---5-5--5-----|-----------------------|


  A                     D                N.C.
  E   E E E E   E E E    E E Q  E E Q    E E Q  H      W
|---------------------|----------------|-------------|------|
|---------------------|----------------|-------------|------|
|---------------------|----------------|-------------|------|
|---------------------|----------------|-------------|------|
|-------0---------0---|-/3-3s2--0-2-0--|-------------|------|
|-4b5-------4b5-------|----------------|-5-----------|------|
|
| Q     E E Q.      E    Q   Q  Q   Q    W             W
|-5-----5-5-5---------|--5---5--5---5--|-------------|------|
|-5-----5-5-5---------|--7---7--7---7--|-------------|------|
|-6-----6-6-6---------|--7---7--7---7--|-------------|------|
|-7-----7-7-7---------|--7---7--7---7--|-------------|------|
|-7-----7-7-7---------|--5---5--5---5--|-------------|------|
|-5-----5-5-5---------|----------------|-------------|------|


  E   +E  E   +E  E   +E  E E   E   Q.    E    +E  Q
|-----------------------------|-----------------------|
|-----------------------------|-----------------------|
|-----------------------------|-----------------------|
|-----------------------------|-----------------------|
|-----------------------------|-----------------------|
|-7b8r(7)-7b8r(7)-7b8r(7)-5-5-|-7b8-7b8---7pb8r(7)-5--|


  E   +E  E   +E  E   +E  E E   E   E    +Q   E E Q
|-----------------------------|-----------------------||
|-----------------------------|-----------------------||
|-----------------------------|-----------------------||
|-----------------------------|-----------------------||
|-----------------------------|-----------------------||
|-7b8r(7)-7b8r(7)-7b8r(7)-5-5-|-7b8-7pb8r(7)--5-------||


 Bridge
  D             A             D             A
  E E Q  H      E E Q  H      E E Q  H      E E Q  H
|-------------|-------------|-------------|-------------||
|-------------|-------------|-3-----------|-5-----------||
|-------------|-6-----------|-2-----------|-6-----------||
|-4-----------|-7-----------|-4-----------|-7-----------||
|-5-----------|-------------|-5-----------|-7-----------||
|-------------|-------------|-------------|-------------||


 Sax Solo
  A               D                 A              E
  Gtr II
  Q  E E Q  E E   Q  E E +E  E Q    Q  E E Q  Q    Q  Q  E E E E
|-5--5-5-5--5---|-5--5-5-(5)-5-5--|-5--5-5-5--5--|-7--7--7-7-7----|
|-5--5-5-5--5---|-7--7-7-(7)-7-7--|-5--5-5-5--5--|-9--9--9-9-9----|
|-6--6-6-6--6---|-7--7-7-(7)-7-7--|-6--6-6-6--6--|-9--9--9-9-9----|
|-7--7-7-7--7---|-7--7-7-(7)-7-7--|-7--7-7-7--7--|-9--9--9-9-9----|
|-7--7-7-7--7---|-5--5-5-(5)-5-5--|-7--7-7-7--7--|-7--7--7-7-7----|
|-5--5-5-5--5---|-----------------|-5--5-5-5--5--|----------------|


  A               A              A              E
  Q  E E Q  E E   Q  E E Q  Q    Q  E E Q  Q    Q  E E Q  E E
|-5--5-5-5--5---|-5--5-5-5--5--|-5--5-5-5--5--|-7--7-7-7--7----|
|-5--5-5-5--5---|-7--7-7-7--7--|-5--5-5-5--5--|-9--9-9-9--9----|
|-6--6-6-6--6---|-7--7-7-7--7--|-6--6-6-6--6--|-9--9-9-9--9----|
|-7--7-7-7--7---|-7--7-7-7--7--|-7--7-7-7--7--|-9--9-9-9--9----|
|-7--7-7-7--7---|-5--5-5-5--5--|-7--7-7-7--7--|-7--7-7-7--7----|
|-5--5-5-5--5---|--------------|-5--5-5-5--5--|----------------|


  A               D               A               E
  Q  E E Q  E E   Q  E E Q  E E   Q  E E Q  E E   Q  Q  E E Q
|-5--5-5-5--5---|-5--5-5-5--5---|-5--5-5-5--5---|-7--7--7-7-7---|
|-5--5-5-5--5---|-7--7-7-7--7---|-5--5-5-5--5---|-9--9--9-9-9---|
|-6--6-6-6--6---|-7--7-7-7--7---|-6--6-6-6--6---|-9--9--9-9-9---|
|-7--7-7-7--7---|-7--7-7-7--7---|-7--7-7-7--7---|-9--9--9-9-9---|
|-7--7-7-7--7---|-5--5-5-5--5---|-7--7-7-7--7---|-7--7--7-7-7---|
|-5--5-5-5--5---|---------------|-5--5-5-5--5---|---------------|


  A               D             N.C.
  Q  E E Q.   E   Q  Q  Q  Q    W          W
|-5--5-5-5------|-5--5--5--5--|----------|------|
|-5--5-5-5------|-7--7--7--7--|----------|------|
|-6--6-6-6------|-7--7--7--7--|----------|------|
|-7--7-7-7------|-7--7--7--7--|----------|------|
|-7--7-7-7------|-5--5--5--5--|----------|------|
|-5--5-5-5------|-------------|----------|------|


  Gtr I
  E   +E  E   +E  Q  E E   E Q.    E   +E  Q
|------------------------|--------------------|
|------------------------|--------------------|
|------------------------|--------------------|
|------------------------|--------------------|
|------------------------|--------------------|
|-7b8r(7)-7b8r(7)-7--5-5-|-7-7b9---7b8r(7)-5--|


  E   +E  E   +E  E   +E  E E   E Q.    E E Q
|-----------------------------|-----------------||
|-----------------------------|-----------------||
|-----------------------------|-----------------||
|-----------------------------|-----------------||
|-----------------------------|-9---------------||
|-7b8r(7)-7b8r(7)-7b8r(7)-5---|---7b8---5-------||


 2nd Verse
  A                D                   A                 E
         PM--------------------------------------------------------|
  H      E Q   E   E E Q    Q    E E   E E Q   E E E E   E Q.    E Q.
|----------------|-------------------|-----------------|-------------------|
|----------------|-------------------|-----------------|-------------------|
|----------------|-------------------|-----------------|-------------------|
|----------------|-------------------|-----------------|-------------------|
|--------7-7---7-|-5-5------5----5---|-7-7-----7-7-7-7-|-7-7-----7-7-------|
|----------------|-----------------7-|-----------------|-------------------|
|
| Gtr II
| Q  E E Q   E E   Q   E E +E  E Q     Q   E E Q   Q     Q    Q  E E  E E
|-5--5-5-5---5---|-5---5-5-(5)-5-5---|-5---5-5-5---5---|-7----7--7-7--7----|
|-5--5-5-5---5---|-7---7-7-(7)-7-7---|-5---5-5-5---5---|-9----9--9-9--9----|
|-6--6-6-6---6---|-7---7-7-(7)-7-7---|-6---6-6-6---6---|-9----9--9-9--9----|
|-7--7-7-7---7---|-7---7-7-(7)-7-7---|-7---7-7-7---7---|-9----9--9-9--9----|
|-7--7-7-7---7---|-5---5-5-(5)-5-5---|-7---7-7-7---7---|-7----7--7-7--7----|
|-5--5-5-5---5---|-------------------|-5---5-5-5---5---|-------------------|


  A                 D                 A                 E
  PM------------------------------------------------------------------|
  E E E E E E E E   E E E E E E E E   E E E E E E E E   E E E E E E E E
|-----------------|-----------------|-----------------|------------------|
|-----------------|-----------------|-----------------|------------------|
|-----------------|-----------------|-----------------|------------------|
|-----------------|-----------------|-----------------|------------------|
|-7-7-7-7-7-7-7-7-|-5-5-5-5-5-5-5-5-|-7-7-7-7-7-7-7-7-|-7-7-7-7-7-7-7-7--|
|-----------------|-----------------|-----------------|------------------|
|
| Q   E E Q   E E   Q   E E Q   Q     Q   E E Q   Q     Q   E E Q   E E
|-5---5-5-5---5---|-5---5-5-5---5---|-5---5-5-5---5---|-7---7-7-7---7----|
|-5---5-5-5---5---|-7---7-7-7---7---|-5---5-5-5---5---|-9---9-9-9---9----|
|-6---6-6-6---6---|-7---7-7-7---7---|-6---6-6-6---6---|-9---9-9-9---9----|
|-7---7-7-7---7---|-7---7-7-7---7---|-7---7-7-7---7---|-9---9-9-9---9----|
|-7---7-7-7---7---|-5---5-5-5---5---|-7---7-7-7---7---|-7---7-7-7---7----|
|-5---5-5-5---5---|-----------------|-5---5-5-5---5---|------------------|


  A                 D                 A                 E
  PM------------------------------------------------------------------|
  E E E E E E E E   E E Q   E E E E   E E E E E E Q     E E E E E E E E
|-----------------|-----------------|-----------------|------------------|
|-----------------|-----------------|-----------------|------------------|
|-----------------|-----------------|-----------------|------------------|
|-----------------|-----------------|-----------------|------------------|
|-7-7---7-7-7-x-x-|-5-5-5---5-5-5---|-7-7-7-7-7-7-----|-7-7-7---7-7-7-7--|
|-----------------|---------------5-|-----------------|------------------|
|
| Q   E E Q   E E   Q   E E Q   E E   Q   E E Q   E E   Q   Q   E E Q
|-5---5-5-5---5---|-5---5-5-5---5---|-5---5-5-5---5---|-7---7---7-7-7----|
|-5---5-5-5---5---|-7---7-7-7---7---|-5---5-5-5---5---|-9---9---9-9-9----|
|-6---6-6-6---6---|-7---7-7-7---7---|-6---6-6-6---6---|-9---9---9-9-9----|
|-7---7-7-7---7---|-7---7-7-7---7---|-7---7-7-7---7---|-9---9---9-9-9----|
|-7---7-7-7---7---|-5---5-5-5---5---|-7---7-7-7---7---|-7---7---7-7-7----|
|-5---5-5-5---5---|-----------------|-5---5-5-5---5---|------------------|


  A                  D              N.C.
  PM---------------------------|
  E E E E E  E E E   E E Q  Q  Q    E E Q  H      W
|------------------|--------------|-------------|------|
|------------------|--------------|-------------|------|
|------------------|--------------|-------------|------|
|------------------|--------------|-------------|------|
|-7-7-7-7-7--7-7-7-|-5-5-5--5--5--|-------------|------|
|------------------|--------------|-5-----------|------|
|
| Q   E E Q.     E   Q   Q  Q  Q    W             W
|-5---5-5-5--------|-5---5--5--5--|-------------|------|
|-5---5-5-5--------|-7---7--7--7--|-------------|------|
|-6---6-6-6--------|-7---7--7--7--|-------------|------|
|-7---7-7-7--------|-7---7--7--7--|-------------|------|
|-7---7-7-7--------|-5---5--5--5--|-------------|------|
|-5---5-5-5--------|--------------|-------------|------|


  E   +E  E   +E  a    +Q   E E   E Q.    E    +E  E E
|-------------------------------|----------------------|
|-------------------------------|----------------------|
|-------------------------------|----------------------|
|-------------------------------|----------------------|
|-------------------------------|----------------------|
|-7b8r(7)-7b8r(7)-7pb8r(7)--5-5-|-7-7b8---7pb8r(7)-5-5-|


  E   +E  E   +E  E   +E  E E   E   E    +Q   H
|-----------------------------|--------------------||
|-----------------------------|--------------------||
|-----------------------------|--------------------||
|-----------------------------|--------------------||
|-----------------------------|--------------------||
|-7b8r(7)-7b8r(7)-7b8r(7)-5-5-|-7b8-7pb8r(7)--5----||


 Outro
  A                 D
  Q    E E H        E E E S S  S  S S S S E.
|-----------------|---5-5-5-5--5--5-5-5-5-5--|
|----/10----------|--------------------------|
|-----------------|--------------------------|
|-----------------|--------------------------|
|-----------------|--------------------------|
|-----------------|--------------------------|
|
| Gtr II
| Q    E E Q  E E   Q   E E   +E    E   Q
|-5----5-5-5--5---|-5---5-5---(5)---5---5----|
|-5----5-5-5--5---|-7---7-7---(7)---7---7----|
|-6----6-6-6--6---|-7---7-7---(7)---7---7----|
|-7----7-7-7--7---|-7---7-7---(7)---7---7----|
|-7----7-7-7--7---|-5---5-5---(5)---5---5----|
|-5----5-5-5--5---|--------------------------|


  A                 E
  E E   Q   H       Q  S S E S S E Q
|-8-8b9-----------|----8p5-------------|
|-----------------|--------------------|
|-----------------|----------8-7p5-----|
|-----------------|--------------------|
|-----------------|--------------------|
|-----------------|--------------------|
|
| Q     E E Q  Q    Q  Q     E   E E E
|-5-----5-5-5--5--|-7--7-----7---7-7---|
|-5-----5-5-5--5--|-9--9-----9---9-9---|
|-6-----6-6-6--6--|-9--9-----9---9-9---|
|-7-----7-7-7--7--|-9--9-----9---9-9---|
|-7-----7-7-7--7--|-7--7-----7---7-7---|
|-5-----5-5-5--5--|--------------------|


  A                 D
  E E Q   E E Q     a S E. +Q    S E. +Q
|-----------------|---5----------5---------|
|-----------------|------------------------|
|---------5-------|-7h8p7--(7)---8p7--(7)--|
|-7-7-------7-----|------------------------|
|-----------------|------------------------|
|-----------------|------------------------|
|
| Q   E E Q   E E     Q     E  E Q     Q
|-5---5-5-5---5---|---5-----5--5-5-----5---|
|-5---5-5-5---5---|---7-----7--7-7-----7---|
|-6---6-6-6---6---|---7-----7--7-7-----7---|
|-7---7-7-7---7---|---7-----7--7-7-----7---|
|-7---7-7-7---7---|---5-----5--5-5-----5---|
|-5---5-5-5---5---|------------------------|


  A                E
  Q  Q   a Q  Q    S E. E E +E  E E E
|----------------|---------------------|
|-------------5--|---------------------|
|----------------|---------------------|
|-7--7---5h7-----|-5h7-----------------|
|----------------|------7-7-(7)-7-7-7--|
|----------------|---------------------|
|
| Q  E E   Q  Q    Q    E E  Q    E E
|-5--5-5---5--5--|-7----7-7--7----7----|
|-5--5-5---5--5--|-9----9-9--9----9----|
|-6--6-6---6--6--|-9----9-9--9----9----|
|-7--7-7---7--7--|-9----9-9--9----9----|
|-7--7-7---7--7--|-7----7-7--7----7----|
|-5--5-5---5--5--|---------------------|


  A                 D                  A                  E
  E E Q   E E Q     E E E E Q  S S E   H      a E E Q     a Q  Q  H
|-----------------|------------------|------------------|----------------*|
|-----------------|------------------|------------------|----------------*|
|-----------------|------------------|------------------|----------------*|
|---------5-------|-5-----4----------|--------5h7-------|----------------*|
|-5h7-----5h7-----|-5h7-5-5----------|--------------7---|-5h7--7---------*|
|-----------------|------------8s7---|------------------|----------------*|
|
| Q   E E Q   E E   Q   E E Q  E   E   Q  E E   Q   E E     Q  Q  E E Q
|-5---5-5-5---5---|-5---5-5-5--5-----|-5--5-5---5---5---|---7--7--7-7-7--*|
|-5---5-5-5---5---|-7---7-7-7--7-----|-5--5-5---5---5---|---9--9--9-9-9--*|
|-6---6-6-6---6---|-7---7-7-7--7-----|-6--6-6---6---6---|---9--9--9-9-9--*|
|-7---7-7-7---7---|-7---7-7-7--7-----|-7--7-7---7---7---|---9--9--9-9-9--*|
|-7---7-7-7---7---|-5---5-5-5--5-----|-7--7-7---7---7---|---7--7--7-7-7--*|
|-5---5-5-5---5---|------------------|-5--5-5---5---5---|----------------*|


Duration Legend
---------------
W - whole; H - half; Q - quarter; E - 8th; S - 16th; T - 32nd; X - 64th; a - acciaccatura
+ - note tied to previous; . - note dotted; .. - note double dotted
Uncapitalized letters represent notes that are staccato (1/2 duration)
Irregular groupings are notated above the duration line
Duration letters will always appear directly above the note/fret number it represents the
duration for.  Duration letters with no fret number below them represent rests.  Multi-
bar rests are notated in the form Wxn, where n is the number of bars to rest for.  Low
melody durations appear below the staff

Tablature Legend
----------------
 h   - hammer-on
 p   - pull-off
 b   - bend
 pb  - pre-bend
 r   - bend release (if no number after the r, then release immediately)
 /\  - slide into or out of (from/to "nowhere")
 s   - legato slide
 S   - shift slide
  - natural harmonic
[n]  - artificial harmonic
n(n) - tapped harmonic
 ~   - vibrato
 tr  - trill
 T   - tap
 TP  - trem. picking
 PM  - palm muting
\n/  - tremolo bar dip; n = amount to dip
 \n  - tremolo bar down
 n/  - tremolo bar up
/n\  - tremolo bar inverted dip
 =   - hold bend; also acts as connecting device for hammers/pulls
 <>  - volume swell (louder/softer)
 x   - on rhythm slash represents muted slash
 o   - on rhythm slash represents single note slash

Misc Legend
-----------
 |  - bar
||  - double bar
||o - repeat start
o|| - repeat end
*|  - double bar (ending)
 :  - bar (freetime)
 $  - Segno
 &  - Coda
Tempo markers -  = BPM(8/16=s8/s16), where s8 = swing 8ths, s16 = swing 16ths
Добавлено: 11.07.2015
Другие материалы по этой песне:

Страница создана 15.01.2014
http://primanota.ru/duane-eddy/boss-guitar-chords.htm
Привет, Гость.
Предлагаем пройти революционный курс по гитаре.
Подарок от PrimaNota.Ru, забирай!