PrimaNota.ru - самый крупный в мире бесплатный архив песенных текстов, аккордов, табулатур и нот


Buckethead - What Kind Of Nation - таба, видео

Регистрация Запомнить меня
Войти через:  Facebook Google Twitter Vk Yandex Mail.ru

Buckethead - What Kind Of Nation - таба, видео

Печатать
Просмотров: 113
	What Kind Of Nation (also known as Beyond The Knowing) by Buckethead tabbed by Xonty.

Tuning: Standard with capo on 1st fret (the original tuning is inconveniently 
tuned to half a step down 
with a capo on 2nd fret for some reason, but this method is more practical).

Let strings ring all throughtout the song.

The coda symbols go from D.S which goes directly to SIGN to TO CODA
which goes directly to CODA

              SIGN            
|| ^ 0~----||------------0--|-----------0--|-----------0--|-----------0--|| 
|| | 0~----||--------0------|-------0------|-------0------|-------0------||
16 | 1~----06o---8-----8----|---8-----8----|---8-----8----|---8-----8---o||
32 | 2~----32o-----6--------|-----6--------|-----6--------|-----6-------o||
|| | 2~----||--4------------|-4------------|-0------------|--------------||
|| | 0~----||---------------|--------------|--------------|-7------------||x4

||------------0--|-----------0--|-----------0--|-----------0--||--------------0--|
||--------0------|-------0------|-------0------|-------0------||---------0-------|
||o--9------9----|---8-----8----|---6-----6----|---8-----8---o||---11------11----|
||o----11--------|-----9--------|-----7--------|-----9-------o||------13---------|
||-0-------------|-0------------|-0------------|-0------------||-0---------------|
||---------------|--------------|--------------|--------------||-----------------|

|------------0--|-----------0--|------------0--|------------0--|-----------0--|
|--------0------|-------0------|--------0------|--------0------|-------0------|
|---9------9----|---8-----8----|---9------9----|---9------9----|---8-----8----|
|-----11--------|-----9--------|-----11--------|-----11--------|-----9--------|
|-0-------------|-0------------|-0-------------|-0-------------|-0------------|
|---------------|--------------|---------------|---------------|--------------|

|-----------0--|-----------0--||------------0--|-----------0--|-----------0--| 
|-------0------|-------0------||--------0------|-------0------|-------0------|
|---6-----6----|---4-----4----||o---4-----4----|---4-----4----|---4-----4----|
|-----8--------|-----6--------||o-----2--------|-----2--------|-----1--------|
|-0------------|-0------------||--4------------|-4------------|-2------------|
|--------------|--------------||---------------|--------------|--------------|

                 
                 TO CODA
|-----------0--||-----------0--|-----------0--|-----------0--|-----------0--|
|-------2------||-------2------|-------2------|-------4------|-------2------|
|---4-----4---o||---4-----4----|---4-----0----|---4-----4----|---4-----4----|
|-----2-------o||-----2--------|-----2--------|-----2--------|-----2--------|
|-0------------||-0------------|-0------------|-0------------|-0------------|
|--------------||--------------|--------------|--------------|--------------|

|-----------0--||-----------0-- ^ 0~---||
|-------2------||-------2------ | 2~---||  D.S (go back to "SIGN")
|---4-----4----14---4-----4---- | 4~---06
|-----2--------32-----2-------- | 2~---32
|-0------------||-0------------ | 0~---||
|--------------||----------------------||

CODA

||-----------0~~--||---------------0~~--||----------------0--|---------------0--|
||-------2--------||----------0---------||-----------0-------|----------0-------|
19---4-----4------18----10------10------06o----12------12----|----12------12----|
32-----2----------32-------14-----------32o-------16---------|-------16---------|
||-0--------------||-12-----------------||--14---------------|-14---------------|
||----------------||--------------------||-------------------|------------------|

|---------------0--|---------------0--|-------------0--|------------0--|-----------0--|
|----------0-------|----------0-------|---------0------|--------0------|-------0------|
|----11------11----|----11------11----|----0------0----|---0------0----|---0-----0----|
|-------14---------|-------14---------|------12--------|-----12--------|-----9--------|
|-12---------------|-12---------------|-10-------------|-9-------------|-7------------|
|------------------|------------------|----------------|---------------|--------------|

|-----------0--|| ||------------0--|-----------0--|-----------0--|-----------0--|
|-------0------|| ||--------0------|-------0------|-------0------|-------0------|
|---0-----0---o|| ||o---0-----0----|---0-----0----|---0-----0----|---0-----0----|
|-----9-------o|| ||o-----9--------|-----7--------|-----5--------|-----5--------|
|-7------------|| ||--7------------|-5------------|-3------------|-3------------|
|--------------|| ||---------------|--------------|--------------|--------------|

|-----------0--|-----------0--|-----------0--|-----------0--||
|-------0------|-------0------|-------0------|-------0------||
|---0-----0----|---0-----0----|---0-----0----|---0-----0---o||
|-----5--------|-----7--------|-----9--------|-----9-------o||
|-3------------|-5------------|-7------------|-7------------||
|--------------|--------------|--------------|--------------||

||-----------0-0---0---||-----------0--|-----------0--|
||-------0-----0---0---||-------0------|-------0------|
14---0-----0---0---0---06---0-----0----|---0-----0----|
32-----9-------7---9---32-----9--------|-----9--------|
||-7-----------5---7---||-7------------|-7------------|
||-------------0---0---||--------------|--------------|

||-----------0-0---0---||-----------0--|-----------0--|
||-------0-----0---0---||-------0------|-------0------|
14---0-----0---0---0---06---0-----0----|---0-----0----|
32-----9-------7---9---32-----9--------|-----9--------|
||-7-----------5---7---||-7------------|-7------------|
||-------------0---0---||--------------|--------------|

||-----------0-0---0---||-----------0--|-----------0--|
||-------0-----0---0---||-------0------|-------0------|
14---0-----0---0---0---06---0-----0----|---0-----0----|
32-----9-------7---5---32-----5--------|-----5--------|
||-7-----------5---3---||-3------------|-3------------|
||-------------0---0---||--------------|--------------|

||-----------0--------||-----------0--|-----------0--|
||-------0------------||-------0------|-------0------|
09---0-----0-----0----06---0-----0----|---0-----0----|
32-----5-----------7--32-----9--------|-----9--------|
||-3-----------5------||-7------------|-7------------|
||--------------------||--------------|--------------|

||-0~~~------||-0-0-0-0-0-0-0-0-0-0-0-0-0-0-0---0-0-0-0-0-0--|
||-0~~~------||-8-X-X-7-X-X-0-0-0-0-0-0-0-0-0---0-0-0-0-0-0--|
17-0~~~------24-0-0-0-0-0-0-0-0-0-0-0-0-0-0-0---0-0-0-0-0-0--|
32-9~~~------32-X-X-X-X-X-X-7-7-7-7-7-7-7-7-7h9-9-9-9-9-9-9--|
||-7~~~------||-7-X-X-7-X-X-7-7-7-7-7-7-7-7-7---7-7-7-7-7-7--|
||-0~~~------||-0-0-0-0-0-0-0-0-0-0-0-0-0-0-0---0-0-0-0-0-0--|

||-0-0-0-0-0-0-0-0-0-0-0-||-0-0-0-0-0--0-0-0-0-0--0-0-0-0-0---0-0-0-0-0-0-0--|
||-0-0-0-0-0-0-0-0-0-0-0-||-5-5-5-3-3--3-3-3-3-3--3-3-3-3-3---3-3-3-3-3-3-3--|
11-0-0-0-0-0-0-0-0-0-0-0-26-0-0-0-0-0--0-0-0-0-0--0-0-0-0-0---0-0-0-0-0-0-0--|
32-9-9-9-9-9-9-X-X-X-X-X-32-X-X-X-X-X--X-4-4-4-4--4-4-4-4-4h5-5-5-5-5-5-5-5--|
||-7-7-7-7-7-7-X-X-X-X-X-||-3-3-3-3-3--3-3-3-3-3--3-3-3-3-3---3-3-3-3-3-3-3--|
||-0-0-0-0-0-0-0-0-0-0-0-||-0-0-0-0-0--0-0-0-0-0--0-0-0-0-0---0-0-0-0-0-0-0--|

||-0-0-0-0-0-0-0--0--||-0-0-0-0-0-0-0-0-0-0-0-0-0-0-0---0-0-7-7-7-7--|
||-3-3-3-3-3-3-3--3--||-8-X-X-7-X-X-0-0-0-0-0-0-0-0-0---0-0-0-0-0-0--|
10-0-0-0-0-0-0-0--0--24-0-0-0-0-0-0-0-0-0-0-0-0-0-0-0---0-0-0-0-0-0--|
32-5-5-5-5-5-5-5--5--32-X-X-X-X-X-X-7-7-7-7-7-7-7-7-7h9-9-9-9-9-9-9--|
||-3-3-3-3-3-3-3--3--||-7-X-X-7-X-X-7-7-7-7-7-7-7-7-7---7-7-7-7-7-7--|
||-0-0-0-0-0-0-0--0--||-0-0-0-0-0-0-0-0-0-0-0-0-0-0-0---0-0-0-0-0-0--|


||-0-0-0-0--0-0-0-0-7-7--||-0-0-0-0-0--0-0-0-0-0--0-0-0-0-0---0-0-0-0-0-0--|
||-0-0-0-0--0-0-0-0-0-0--||-5-5-5-3-3--3-3-3-3-3--3-3-3-3-3---3-3-3-3-3-3--|
12-0-0-0-0--0-0-0-0-0-0--26-0-0-0-0-0--0-0-0-0-0--0-0-0-0-0---0-0-0-0-0-0--|
32-9-9-9-9--9-9-9-9-X-X--32-X-X-X-X-X--X-4-4-4-4--4-4-4-4-4h5-5-5-5-5-5-5--|
||-7-7-7-7--7-7-7-7-X-X--||-3-3-3-3-3--3-3-3-3-3--3-3-3-3-3---3-3-3-3-3-3--|
||-0-0-0-0--0-0-0-0-0-0--||-0-0-0-0-0--0-0-0-0-0--0-0-0-0-0---0-0-0-0-0-0--|

||-0-0-0-0-0-0-0--0--||-0-0-0-0-0-0-0-0-0-0-0-0-0-0-0---0-0-7-7-7-7--|
||-3-3-3-3-3-3-3--3--||-8-X-X-7-X-X-0-0-0-0-0-0-0-0-0---0-0-0-0-0-0--|
10-0-0-0-0-0-0-0--0--24-0-0-0-0-0-0-0-0-0-0-0-0-0-0-0---0-0-0-0-0-0--|
32-5-5-5-5-5-5-5--5--32-X-X-X-X-X-X-7-7-7-7-7-7-7-7-7h9-9-9-9-9-9-9--|
||-3-3-3-3-3-3-3--3--||-7-X-X-7-X-X-7-7-7-7-7-7-7-7-7---7-7-7-7-7-7--|
||-0-0-0-0-0-0-0--0--||-0-0-0-0-0-0-0-0-0-0-0-0-0-0-0---0-0-0-0-0-0--|

||-7-7-7-7-7-7-7--||-0--0-0-0-0--0--2--2-2-2-2--2/3-2-2-0-0--0--0---|
||-0-0-0-0-0-0-0--||-0--0-0-0-0--0--0--0-0-0-0--0---0-0-0-0--0--0---|
08-0-0-0-0-0-0-0--27-0--0-0-0-0--0--0--0-0-0-0--0---0-0-0-0--0--0---|
32-9-9-9-9-9-9-9--32-5--5-5-5-5--5--5--5-5-5-5--5---5-5-5-5--5--5---|
||-7-7-7-7-7-7-7--||-3--3-3-3-3--3--3--3-3-3-3--3---3-3-3-3--3--3---|
||-0-0-0-0-0-0-0--||-0--0-3-0-0--0--0--0-0-0-0--0---0-0-0-0--0--0---|

||-X-X-5-5-5/7-7-7-7-7-7-7--7-7-7-7-7-7-7---||-5/7-7-7-7-7-7-7-7-7--7-7-7-7-7-7---|
||-0-0-0-0-0---0-0-0-0-0-0--0-0-0-0-0-0-0---||-0---0-0-0-0-0-0-0-0--0-0-0-0-0-0---|
21-0-0-0-0-0---0-0-0-0-0-0--0-0-0-0-0-0-0---19-0---0-0-0-0-0-0-0-0--0-0-0-0-0-0---|
32-X-X-9-9-9---9-9-9-9-9-9--9-9-9-9-9-9-9---32-9---9-9-9-9-9-9-9-9--9-9-9-9-9-9---|
||-X-X-7-7-7---7-7-7-7-7-7--7-7-7-7-7-7-7---||-7---7-7-7-7-7-7-7-7--7-7-7-7-7-7---|
||-0-0-0-0-0---0-0-0-0-0-0--0-0-0-0-0-0-0---||-0---0-0-0-0-0-0-0-0--0-0-0-0-0-0---|

||-X-X-2/3-2-0-0-0-0-0-0-0--0-0-0-0-0-0-0---||-2/3-2-0-0-0-0--0--0---|
||-0-0-0---0-0-0-0-0-0-0-0--0-0-0-0-0-0-0---||-0---0-0-0-0-0--0--0---|
21-0-0-0---0-0-0-0-0-0-0-0--0-0-0-0-0-0-0---12-0---0-0-0-0-0--0--0---|
32-X-X-9---5-5-5-5-5-5-5-5--5-5-5-5-5-5-5---32-5---5-5-5-5-5--5--5---|
||-X-X-5---3-3-3-3-3-3-3-3--3-3-3-3-3-3-3---||-3---3-3-3-3-3--3--3---|
||-0-0-0---0-0-0-0-0-0-0-0--0-0-0-0-0-0-0---||-0---0-0-0-0-0--0--0---|

||--0--5--5/7--7--7--7--7--7~--7--7--7~--7---||
||--0--0--0----0--0--0--0--0~--0--0--0~--0---||
30o-0--0--0----0--0--0--0--0~--0--0--0~--0--o||
32o-9--9--9----9--9--9--9--9~--9--9--9~--9--o||
||--7--7--7----7--7--7--7--7~--7--7--7~--7---||
||--0--0--0----0--0--0--0--0~--0--0--0~--0---||

||-0--0--2/3--2~~-----0~--0--0--0--0--0~---| 
||-0--0--0----0~~-----0~--0--0--0--0--0~---|
32-0--0--0----0~~-----0~--0--0--0--0--0~---|
32-5--5--5----5~~-----5~--5--5--5--5--5~---|
||-3--3--3----3~~-----3~--3--3--3--3--3~---|
||-0--0--0----0~~-----0~--0--0--0--0--0~---|

|-0--0--2/3--2~~-----0~~~-------------|
|-0--0--0----0~~-----0~~~-------------|
|-0--0--0----0~~-----0~~~-------------|
|-5--5--5----5~~-----5~~~-------------|
|-3--3--3----3~~-----3~~~-------------|
|-0--0--0----0~~-----0~~~-------------|

||--------------------||-0------------------||
||---------------0~---||--0-----------------||
18-------------0-0~---25---0----------------||
32-----------4--------32----4---------------||
||---------2----------||------2~------------||
||-0~~----------------||----------0~~~------||

Legend:

||
||
32 = Time Signature
32
||
||

/ OR \ = Slide
~ = Long note, not vibrato (the mroe lines, the longer)
X = Muted note
h = hammer on
p = pull off
||       ||
||       ||
||o AND o|| =Start and end repeat signs.
||o     o||
||       ||
||       ||

^
|
| = Arpeggiate
|
|
|

Codas are explained at the top.
Добавлено: 14.08.2013
Другие материалы по этой песне:

Страница создана 22.02.2012
http://primanota.ru/buckethead/what-kind-of-nation-chords.htm
Привет, Гость.
Предлагаем пройти революционный курс по гитаре.
Подарок от PrimaNota.Ru, забирай!