PrimaNota.ru - самый крупный в мире бесплатный архив песенных текстов, аккордов, табулатур и нот


Buckethead - The Redeem Team - таба, видео

Регистрация Запомнить меня
Войти через:  Facebook Google Twitter Vk Yandex Mail.ru

Buckethead - The Redeem Team - таба, видео

Печатать
Просмотров: 280
-------------------------------------------------------------------------------
                            redeem team - Buckethead!
-------------------------------------------------------------------------------
Tabbed by:max
Email:sdfthyetfregegrtbrt

Tuning:eadgbe

e|----12-14-15-14-------10-12--------------------------------------------|
B|-12-------------15-12-------12---10-12---------------------------------|
G|---------------------------------------12-11-9-------------------------|
D|-----------------------------------------------------------------------|
A|-----------------------------------------------------------------------|
E|-----------------------------------------------------------------------|

e|----12-14-15-14-15-17-19-20-19----22-20-19--------------------------------|
B|-12----------------------------20-----------------------------------------|
G|--------------------------------------------------------------------------|
D|--------------------------------------------------------------------------|
A|--------------------------------------------------------------------------|
E|--------------------------------------------------------------------------|
Добавлено: 05.06.2012
Другие материалы по этой песне:

Страница создана 01.03.2012
http://primanota.ru/buckethead/the-redeem-team-chords.htm
Привет, Гость.
Предлагаем пройти революционный курс по гитаре.
Подарок от PrimaNota.Ru, забирай!