PrimaNota.ru - самый крупный в мире бесплатный архив песенных текстов, аккордов, табулатур и нот


Buckethead - Whitewash Live - таба, видео

Регистрация Запомнить меня
Войти через:  Facebook Google Twitter Vk Yandex Mail.ru

Buckethead - Whitewash Live - таба, видео

Печатать
Просмотров: 343
-------------------------------------------------------------------------------
        Whitewash (Live version) - Buckethead 
        http://www.youtube.com/watch?v=8akmP6Sjv2o
-------------------------------------------------------------------------------
Tabbed by: Brad V. (black_box on /forum/index.php)

Tune Down: 1/2 step
6th=Eb 5th=Ab 4th=Db 3rd=Gb 2nd=Bb 1st=Eb

INTRO:

E------------------------------------------------------------------------------|
B----------------8--7-------------------7----------------------10--8-----------|
G-----------7---------------------7--------7---------------7-----------6-6h7-4-|
D-------11--------------------11-----------------------11----------------------|
A----9---------------------9------------------------9--------------------------|
E-7---------------------7------------------------7---------------------5-5---3-|

E--------------------------------------------------------------10--9----7--|
B----------------8--7-------------------7----------------------------------|
G-----------7---------------------7--------7---------------7---------------|
D-------11--------------------11-----------------------11---------------5--|
A----9---------------------9------------------------9----------------------|
E-7---------------------7------------------------7----------------------3--|

E-7h9p7------------------------7h9p7-------------------------------------|
B--------10--7----7h8h10--------------10--7----7h8h10--------------------|
G------------------------7----------------------------7--6------6h7--6h7-|
D-----------------0----------------------------0-------------7-----------|
A--------------------------------------------------------0---------------|
E-7----------------------------7-----------------------------------------|

E-7h9h10------------------------7h9p7------------------------------------|
B--------10--7----7h8h10--------------10--7----7h8h10--------------------|
G------------------------7----------------------------7--6------6h7--6h7-|
D-----------------0----------------------------0-------------7-----------|
A--------------------------------------------------------0---------------|
E-7-----------------------------7----------------------------------------|


E-------------------------|
B-------------------------|
G-----------7---------0--*|
D-------11----------0-----|
A----9------------4------*|
E-7-------------3---------|
                    repeat


SOLO:

E|--------------------9~---10~~-10s12~~-10-9~~--10------------------|
B|------------------10---10------------------------10~~-----10s12~~-|
G|----7-9s11~~----11-------------------------------------11---------|
D|--9---------------------------------------------------------------|
A|------------------------------------------------------------------|
E|------------------------------------------------------------------|

E|---------------------17---15-14---15------------------|
B|--(17)b19--r(17)-b19-----------------15--17b19~r17b19-|
G|------------------------------------------------------|
D|------------------------------------------------------|
A|------------------------------------------------------|
E|------------------------------------------------------|
   pre-bend

E|--17----------------------------------------------------|
B|-----17b19-17~~-15--14----14------14-15-17-----------15-|
G|-----------------------16------16----------14---16------|
D|--------------------------------------------------------|
A|--------------------------------------------------------|
E|--------------------------------------------------------|

E|--17~~--------------------------------------------------------------|
B|--------------------------------------------------------------------|
G|-------14h16~~--------------------------------------------------14~~|
D|---------------14--14h16~--14h16-14-----------------------14-16-----|
A|------------------------------------17--16-17-16-14-16-14-----------|
E|--------------------------------------------------------------------|

E|-----------14~~-------14~~-17~~--15--14--14-15-17------------|
B|-----14-15------17-17-----------------------------15--17b19~~|
G|--16---------------------------------------------------------|
D|-------------------------------------------------------------|
A|-------------------------------------------------------------|
E|-------------------------------------------------------------|

E|--17----------------------------------------------------------------|
B|-----(17)b19~~-r17-15-14-15-14---------------------------14--15--17-|
G|--------------------------------16----------------14-16-------------|
D|-------------------------------------14h16~~~--16-------------------|
A|--------------------------------------------------------------------|
E|--------------------------------------------------------------------|
      pre-bend


E|--17-15-14-15-14-15-17--------------|
B|-----------------------15---17b19~~-|
G|------------------------------------|
D|------------------------------------|
A|------------------------------------|
E|------------------------------------|

E|-10--10-9--9------------------------------10-9----------------|
B|-------------10--10-12--12-------10-12-10------12-10----------|
G|-7---7--6--6----------------9-11---------------------9-11-----|
D|-------------7---7--9---9-------------------------------------|
A|--------------------------------------------------------------|
E|--------------------------------------------------------------|

E|--------------------9----9--10/12--14-------------------------14-----|
B|--------------/10------10------------------14-15-14b15-r14-----------|
G|---------9------------------------------16-----------------16----16--|
D|------11---11--------------------------------------------------------|
A|----9----------------------------------------------------------------|
E|--7------------------------------------------------------------------|

E|----------------------------------------------------------|
B|-----14-----------------------14b15r14-----14-------------|
G|--16---------14--16---16---16----------16------14---14----|
D|--------16------------------------------------------------|
A|----------------------------------------------------------|
E|----------------------------------------------------------|

E|-----------------------------------14b15r14~~~--19--17--14--|
B|---------------------14--15--17-----------------------------|
G|--14h16~~~~16----16-----------------------------------------|
D|------------------------------------------------------------|
A|------------------------------------------------------------|
E|------------------------------------------------------------|
  add distortion

E|--14b15r14---------------------------17--------|
B|---------------14b15r14~~~~~--17b19-----17b19--|
G|-----------16----------------------------------|
D|-----------------------------------------------|
A|-----------------------------------------------|
E|-----------------------------------------------|

E|----------------------------------------17-17--15-14-14-15-17-----|
B|-17-15-14-15-14-------------------15-14-----------------------15--|
G|----------------16-------14---16----------------------------------|
D|-------------------14-16------------------------------------------|
A|------------------------------------------------------------------|
E|------------------------------------------------------------------|

E|-------------------------------------|
B|-15-14---14---14-15-14---------------|
G|-----------------------16-14--14h16--|
D|-------------------------------------|
A|-------------------------------------|
E|-------------------------------------|

E|------------------14-15-14-17-17b19--17-15-14-15-17-----|
B|------14--15--17------------------------------------15--|
G|--16----------------------------------------------------|
D|--------------------------------------------------------|
A|--------------------------------------------------------|
E|--------------------------------------------------------|

E|------------------------------------------------|
B|--17b20-(20)-r19-(19)-r17--15-14---14-15-14-----|
G|--------------------------------------------16--|
D|------------------------------------------------|
A|------------------------------------------------|
E|------------------------------------------------|

E|------------------------------------------------------|
B|------------------------------17--15--14--14----------|
G|------------------14--14--14------------------16--16--|
D|----------16--16--------------------------------------|
A|--14--14----------------------------------------------|
E|------------------------------------------------------|
   (use pinch harmonics or whammy pedal to reach octaves around here)


E|--17--17--15--14--14--15-----------------------17-------------|
B|--------------------------15---17b19-----17b19---(19)~~~~~~---|
G|--------------------------------------------------------------|
D|--------------------------------------------------------------|
A|--------------------------------------------------------------|
E|--------------------------------------------------------------|

E|------------7----------------------------7-----------|
B|--10b12r10----10-7---------------------7---7-10b12---|
G|-------------------9b11---9-7---7-9b10---------------|
D|------------------------------9----------------------|
A|-----------------------------------------------------|
E|-----------------------------------------------------|

E|----------------------------------|
B|--17b19----17b19-17-15-17-15------|
G|-----------------------------16~~~|
D|----------------------------------|
A|----------------------------------|
E|----------------------------------|

E|--------12-15-12-14-------12-15-14-15-14-12-14--|
B|--12-15-------------12-15-----------------------|
G|------------------------------------------------|
D|------------------------------------------------|
A|------------------------------------------------|
E|------------------------------------------------|

E|-------12-15-14-15-12-14-15-17b19~~-|
B|-12-15------------------------------|
G|------------------------------------|
D|------------------------------------|
A|------------------------------------|
E|------------------------------------|

E|----------14-15-14-------------12-14-15-14-12--------------------------|
B|--17b19~~----------17-15-14-15----------------15-14-15-14-12----12-----|
G|-------------------------------------------------------------14----12--|
D|-----------------------------------------------------------------------|
A|-----------------------------------------------------------------------|
E|-----------------------------------------------------------------------|


E|--------------------|----------------|-------------------|
B|--------------------|----------------|-------------------|
G|-----11----11----11-|----9----9----9-|----11----11----11-|
D|--12----12----12----|-11---11---11---|-12----12----12----|
A|--------------------|----------------|-------------------|
E|--------------------|----------------|-------------------|

E|-------------|----------------|-------------|-------------------|
B|-------------|----------------|-------------|-------------------|
G|---7---7---7-|----9----9----9-|---6---6---6-|-------7~----/11~~~|
D|-9---9---9---|-11---11---11---|-7---7---7---|-/9--9----9--------|
A|-------------|----------------|-------------|-------------------|
E|-------------|----------------|-------------|-------------------|


E|-------------------|-------------------|--------------------|
B|-------------------|-------------------|--------------------|
G|-11----11----11----|-12----12----12----|-14----14----14-----|
D|----12----12----12-|----14----14----14-|----16----16----16--|
A|-------------------|-------------------|--------------------|
E|-------------------|-------------------|--------------------|


E|--------------------------------------------------------------|
B|-15-14----14-15--17b19~~~(19)~~~~~~~~~~~~r17~~-15~-15~~-14~~--|
G|-------16-----------------------------------------------------|
D|--------------------------------------------------------------|
A|--------------------------------------------------------------|
E|--------------------------------------------------------------|
                          (Pinch harmonic or whammy)


E|---------------------------------------------------------------|
B|---------------------------------------------------------------|
G|-----14--16~~~-----------------------------------------14-16~~~|
D|-16--------------14-16---14~~~----------------14----14---------|
A|-------------------------------17-16-17-14-17----17------------|
E|---------------------------------------------------------------|


E|-7~~~~~~~~~~~~~~~~~~~~~~~----|-------------------------|
B|-----7----10---8----7-8-7----|------7------------10~~--|
G|----------------------------*|--9~~~~~~-7~~~-6-7~~~---*|
D|-----------------------------|-------------------------|
A|----------------------------*|--0~~~~~~~--------------*|
E|-7~~~~~~~~~~~~~~~~~~~~~~~----|-------------------------|
Добавлено: 04.07.2012
Другие материалы по этой песне:

Страница создана 03.04.2012
http://primanota.ru/buckethead/whitewash-live-chords.htm
Привет, Гость.
Предлагаем пройти революционный курс по гитаре.
Подарок от PrimaNota.Ru, забирай!