PrimaNota.ru - самый крупный в мире бесплатный архив песенных текстов, аккордов, табулатур и нот


Buckethead - Soothsayer - таба, бас-таба, видео

Регистрация Запомнить меня
Войти через:  Facebook Google Twitter Vk Yandex Mail.ru

Buckethead - Soothsayer - таба, бас-таба, видео

Печатать
Просмотров: 847
Song: Soothsayer
Artist: Buckethead

Tabbed by: Max Kliegle

This is the FIRST solo of the song, I will add the other solo's when I get around to it.

This is extremely hard and is not meant to be hammered on or pulled off.


|       |       |       |        |       |       |       |
|18----------------------18------|--------------------------------|
|--1818181918161818191816--181918|16--------18191816--181819181618|
|--------------------------------|--18151815--------15------------|
|--------------------------------|--------------------------------|
|--------------------------------|--------------------------------|
|--------------------------------|--------------------------------|

 |       |       |       |        |       |       |       |
|------18------------------18----|------18----------18------------|
|181916--181819181618181918--1818|191816--191816------191816------|
|--------------------------------|--------------1815--------1815--|
|--------------------------------|------------------------------16|
|--------------------------------|--------------------------------|
|--------------------------------|--------------------------------|

 |       |       |       |        |       |       |       |
|--------------------------18----|--------------------------------|
|--1818----------------1819--1819|1816----------------------------|
|------------------1518----------|----1815----------182018--------|
|15----------161516--------------|--------1615--------------------|
|--------------------------------|------------1816------------1618|
|--------------------------------|----------------18------1818----|

 |       |       |       |        |       |       |       |
|--------------------------------|--------------------------------|
|--------161819181618191816------|--------------------------------|
|----1518------------------181518|15----1815--------------15------|
|1516----------------------------|--1615----1615------1516------15|
|--------------------------------|--------------181618------1618--|
|--------------------------------|--------------------------------|

 |       |       |       |        |       |       |       |
|--------------------------------|
|--------------------------------|
|--------------------------------|
|1615----------------------------|
|--------------------------------|
|--------------------------------|


The above is the correct tab for the first solo.  I recommend for live performances 
along this scale:
|----------------------------18--|
|-------------------16-18-19-----|
|--------------15-18-------------|
|---------15-16------------------|
|---16-18------------------------|
|-18-----------------------------|
Добавлено: 28.02.2012
Другие материалы по этой песне:

Страница создана 28.02.2012
http://primanota.ru/buckethead/soothsayer-chords.htm
Привет, Гость.
Предлагаем пройти революционный курс по гитаре.
Подарок от PrimaNota.Ru, забирай!