PrimaNota.ru - самый крупный в мире бесплатный архив песенных текстов, аккордов, табулатур и нот


Buckethead - This Is Halloween - таба, видео

Регистрация Запомнить меня
Войти через:  Facebook Google Twitter Vk Yandex Mail.ru

Buckethead - This Is Halloween - таба, видео

Печатать
Просмотров: 194
Tuning - Standard (E,A,D,G,B,E)

Ok guys after watching a video off of youtube I think I've finally got the "This Is 
song, more commonly known as "The Nightmare Before Christmas" Theme song. This is 
version, and if you find any flaws please let me know. Thanks guys. ^_^

E-7-7-7-7-7-8-5-5---5-5-5-5-5-7-8-7--7-7-7-7-10-8-7-5--5-5-5-5-8-7-3-3-----|
B-9-9-9-9-9-9-7-7---7-7-7-7-7-7-7-9--9-9-9-9-----------7-7-7---------------|
G--------------------------------------------------------------------------|
D--------------------------------------------------------------------------|
A--------------------------------------------------------------------------|
E-0-0-0-0-0-0-0-0---0-0-0-0-0-0-0-0--0-0-0-0-----------0-0-0---------------|

Ok that's the first part or kinda intro or whatever. Here's the darker part.
*sorry if the timing seems off... this is my first tab*

E----------------------------------------------------------------------------|
B----------------------------------------------------------------------------|
G----------------------------------------------------------------------------|
D----------------------------------------------------------------------------|
A-5-5-5-3-2--5-5-5-3-2--5----------2-3---6-6-6-4-3--6-6-6-4-3--6---------3-4-|
E------------------------5-3-2-1-2------------------------------6-4-3-2-3----|

That's where he stops guys, so as you can see it's not very long and not too hard. Again 
if it's a bit confusing to read it's my first tab. I hope y'all enjoy it and have fun playing!
Добавлено: 25.05.2012
Другие материалы по этой песне:

Страница создана 07.03.2012
http://primanota.ru/buckethead/this-is-halloween-chords.htm
Привет, Гость.
Предлагаем пройти революционный курс по гитаре.
Подарок от PrimaNota.Ru, забирай!