PrimaNota.ru - самый крупный в мире бесплатный архив песенных текстов, аккордов, табулатур и нот


Buckethead - Nottingham Lace - таба, видео

Регистрация Запомнить меня
Войти через:  Facebook Google Twitter Vk Yandex Mail.ru

Buckethead - Nottingham Lace - таба, видео

Печатать
Просмотров: 383
Уроки эстрадного вокала в Санкт-Петербурге
Hope you guys can make good with this.




Nottingham Lace solo

2:36 - 3:09

|----------------------------------------------------------------|
|------------------------------------10^~~-10-8-7----------------|
|-7h8p7---5~~---7h8p7--9p7\5~----7h9-----------------*7h8p7--/5~-|
|----------------------------------------------------------------|
|----------------------------------------------------------------|
|----------------------------------------------------------------|

|-------------------------------------------9-9h10p9h10---------|
|---------------------------------10^---7-----------------------|
|-7h8p7--10-8-5--7h8p7^~~/5---9---------------------------------|
|---------------------------------------------------------------|
|---------------------------------------------------------------|
|---------------------------------------------------------------|

|--12^~-11-9-9h10p9h10-(b)11-12-11-10(r)--9h10p9h10-----------|
|-------------------------------------------------------------|
|-------------------------------------------------------------|
|-------------------------------------------------------------|
|-------------------------------------------------------------|
|-------------------------------------------------------------|


|-^12(b)12-10-9-10-9-9^10~~(r)--9-9h10p9h10--12^-12-11-9------|
|-------------------------------------------------------------|
|-------------------------------------------------------------|
|-------------------------------------------------------------|
|-------------------------------------------------------------|
|-------------------------------------------------------------|


|--9h10p9h12^v^v11---9h10-12-12-10-9-10-----------------------|
|-------------------------------------------------------------|
|---------------------------------------------Lost-me-here----|
|-------------------------------------------------------------|
|-------------------------------------------------------------|
|-------------------------------------------------------------|



I'm no Buckethead -_- I can't finish this so early in my guitar life.


Tab Legend
------------
(b)(r) - Keep every note inside the (b) and (r) bent
^ or v - Bend/Wave kind of
/ or \ - Slide
h      - hammer on (i.e 9hp 9 hammer on to 10)
p      - pull off (i.e 10p9 10 pull off to 9)
~      - Vibrate
*      - Kind of like a pinch harmonic, just let the note squeal.
Добавлено: 18.05.2012
Другие материалы по этой песне:

Страница создана 24.02.2012
http://primanota.ru/buckethead/nottingham-lace-chords.htm
Привет, Гость.
Предлагаем пройти революционный курс по гитаре.
Подарок от PrimaNota.Ru, забирай!