PrimaNota.ru - самый крупный в мире бесплатный архив песенных текстов, аккордов, табулатур и нот


Buckethead - When You Wish Upon A Star - таба, видео

Регистрация Запомнить меня
Войти через:  Facebook Google Twitter Vk Yandex Mail.ru

Buckethead - When You Wish Upon A Star - таба, видео

Печатать
Просмотров: 143
When You Wish Upon a Star 

e---3-1-0------5|---7-5-3-2-3-8|
B-1-------2-3--6|-3-------1----|
G-0---2--------7|-0------------|
D-2------------0|-0------------|
A-3-------------|-2------------|
E---------------|-------------8|

e-10-8-7-5---------|-5--7---|
B----------8--6-5-3|-6--7--0|
G------------------|-7-----0|
D------------------|-0--0--2|
A------6-----------|-------3|
E------------------|--------|
Добавлено: 15.04.2012
Другие материалы по этой песне:

Страница создана 19.03.2012
http://primanota.ru/buckethead/when-you-wish-upon-a-star-chords.htm
Привет, Гость.
Предлагаем пройти революционный курс по гитаре.
Подарок от PrimaNota.Ru, забирай!