PrimaNota.ru - самый крупный в мире бесплатный архив песенных текстов, аккордов, табулатур и нот


Buckethead - Whitewash - таба, видео

Регистрация Запомнить меня
Войти через:  Facebook Google Twitter Vk Yandex Mail.ru

Buckethead - Whitewash - таба, видео

Печатать
Просмотров: 166
Tune Down:
6th=Eb 5th=Ab 4th=Db 3rd=Gb 2nd=Bb 1st=Eb

Section 1.
E-------------------------------------------------------------------------|
B-------------------------------------------------------------------------|
G--------7----------7----------7----------7-------------------------------|
D-----11---------11---------11---------11---------------------------------|
A---9----------9----------9----------9------------------------------------|
E-7----------7----------7----------7--------------------------------------|

E-------------------------------------------------------------------------|
B-----------8-7~-------------7----------------10-8~-----------------------|
G--------7----------------7----7~----------7----------6-6h7-4~------------|
D-----11---------------11---------------11--------------------------------|
A---9----------------9----------------9-----------------------------------|
E-7----------------7----------------7-----------------5-5---3-------------|

E---------------------------------------------10-9------------------------|
B-----------10-8~---------------------------------------------------------|
G--------7----------------7--6-------------7---------4~-------------------|
D-----11---------------11------7~-------11--------------------------------|
A---9----------------9----------------9-----------------------------------|
E-7----------------7----------------7----------------3~-------------------|


Section 2.
E-7h9p7---------------------7h9p7-----------------------------------------|
B-------10-7----7h8h10------------10-7----7h8h10--------------------------|
G----------------------7-------------------------7--6~--------------------|
D---------------0~------------------------0~------------------------------|
A-------------------------------------------------------------------------|
E-7~------------------------7~--------------------------------------------|

E-7h9p7---------------------7h9p7-----------------------------------------|
B-------10-7----7h8h10------------10-7----7h8h10--------------------------|
G----------------------7-------------------------7--6~--------------------|
D---------------0~------------------------0~------------------------------|
A-------------------------------------------------------------------------|
E-7~------------------------7~--------------------------------------------|


Section 3.
E-------------------------------------------------------------------------|
B-------------------------------------------------------------------------|
G--------7-0-0----------7-------0----------7------------------7-----------|
D-----11---0-0-------11-------0---------11-------0---------11---0---------|
A---9------4-4-----9--------4---------9--------4---4-----9------4---------|
E-7--------3-3---7--------3---------7--------3---------7--------3---------|


Section 4.
E-7h9p7---------------------7h9p7-----------------------------------------|
B-------10-7----7h8h10------------10-7----7h8h10--------------------------|
G----------------------7-------------------------7--6---------------------|
D---------------0~------------------------0~----------7~------------------|
A-------------------------------------------------------------------------|
E-7~------------------------7~--------------------------------------------|

E-7h9p7---------------------7h9p7-----------------------------------------|
B-------10-7----7h8h10------------10-7----7h8h10--------------------------|
G----------------------7-------------------------7--6~--------------------|
D---------------0~------------------------0~------------------------------|
A-------------------------------------------------------------------------|
E-7~------------------------7~--------------------------------------------|


Section 5.
E---------------------------------10p9------------------------------------|
B--------------------------------------10---------------------------------|
G--------7-------0----------7--11------------------7----------------------|
D-----11-------0---------11---------------------11------------------------|
A---9--------4---------9----------------------9--------0---0--------------|
E-7--------3---------7----------------------7--------5---5----------------|

E-------------------------------------------------------------------------|
B-----------------------------------3p2-----------------------------------|
G---2---2-----------2---2---------------2---------------------------------|
D---------2---4~----------2---4~----------2---4~--------------------------|
A-------------------------------------------------------------------------|
E-3---3-----3-----3---3-----3-----3---------3-----------------------------|


Section 6.
E-------------------------------------------------------------------------|
B-------------------------12----------------------------------------------|
G--------7--9----------7--11----------7-----4---4-----------0-------------|
D-----11----7-------11-------------11---------5---5-------0---0-----------|
A---9-------------9--------------9-------7-------------4--------4---------|
E-7-------------7--------------7---------5-----------3--------------------|


Section 7.
E-----------------------------------5---------------------17--------------|
B------------------------------------------------------15-----------------|
G--------7-------0----------7------------------7----14--------------------|
D-----11-------0---------11-------0---------11---16-----------------------|
A---9--------4---------9--------4---------9-------------------------------|
E-7--------3---------7--------3---------7---------------------------------|


Section 8.
E-------------------------------------------------------------------------|
B-------------------------------------------------------------------------|
G-------0---------------0---------------0---------------------------------|
D-----4---4-0---------4---4-0---------0-----------------------------------|
A---2---------------2---------------4-------------------------------------|
E-3---------------3---------------3---------------------------------------|

E-------------------------------------------------------------------------|
B-------------------------------------------------------------------------|
G-------0--------------0-----------0--------------------------------------|
D-----4---4-0--------0-----------4----------------------------------------|
A---2--------------4-----------2-----------s4-----------------------------|
E-3--------------3-----------3-----------3-s5-----------------------------|


Section 9.
E-7h9p7---------------------7h9p7-----------------------------------------|
B-------10-7----7h8h10------------10-7----7h8h10--------------------------|
G----------------------7-------------------------7-6~--6h7p6~-------------|
D---------------0~------------------------0~------------------------------|
A-------------------------------------------------------------------------|
E-7~------------------------7~--------------------------------------------|

E-7h9p7---------------------7h9p7-----------------------------------------|
B-------10-7----7h8h10------------10-7----7h8h10--------------------------|
G----------------------7-------------------------7-6~--6h7p6~-------------|
D---------------0~------------------------0~------------------------------|
A-------------------------------------------------------------------------|
E-7~------------------------7~--------------------------------------------|


Section 10.
E-------------------------------------------------------------------------|
B-------------------------------------------------------------------------|
G--------7--9----------7----------7--6---4--------------------------------|
D-----11----7-------11---------11----------------2---2-4------------------|
A---9-------------9----------9--------------------------------------------|
E-7-------------7----------7---------5---3-----3---3----------------------|

E-------------------------------------------------------------------------|
B-------------------------------------------------------------------------|
G-------------------------------------------------------------------------|
D---2---------------------------------------------------------------------|
A--------2---2--2s4--4---4-5p4--------------------------------------------|
E-3----3---3----3s5----5--------------------------------------------------|


Section 11.
E-----------------------------------------9-------------------------------|
B--------------------------------------10---------------------------------|
G--------7s/--9----------7----------7-------------------------------------|
D-----11------7-------11---------11---------------------------------------|
A---9---------------9----------9------------------------------------------|
E-7---------------7----------7--------------------------------------------|

E-------------------------------------------------------------------------|
B-------------------------------------------------------------------------|
G-6--6--2--2h4----4-----------------------0-------------------------------|
D-------------------2-----------2-------2-----------0---------0-----------|
A---------------------4-----4---------4---------2---------4-----4---------|
E-5--5--3--3----3---------3---3-----3---------3---3-----5---5-----5-------|


Section 12.
E-7h9p7---------------------7h9p7-----------------------------------------|
B-------10-7----7h8h10------------10-7----7h8h10--------------------------|
G----------------------7-------------------------7-6~--6h7p6~-------------|
D---------------0~------------------------0~------------------------------|
A-------------------------------------------------------------------------|
E-7~------------------------7~--------------------------------------------|


Section 13.
---7-4s5s4---------------------------------------------------------------|
-----------7--8----------------------------------------------------------|
----------------7--------------------------------------------------------|
-------------------------------------------------------------------------|
-------------------------------------------------------------------------|
-7-----------------------------------------------------------------------|

Section 14.
E-7----7--------5----------------7----7-------5---------------------------|
B----------7--------8---7s8s7-------------7-------8---7s8s7---------------|
G-------------------------------------------------------------------------|
D-------------------------------------------------------------------------|
A-------------------------------------------------------------------------|
E-7--7---7---7----7---7----------7--7---7---7---7---7---------------------|


E-------------------------------------------------------------------------|
B--5---7--3-----------5---5h7-3-------------------------------------------|
G-------------------------------------------------------------------------|
D-------------------------------------------------------------------------|
A-------------------------------------------------------------------------|
E--5-5-5--3--3-3-3-3--5-5-5---3--3-3-3-3----------------------------------|


Section 15.
E-7----7--------5----------------7----7-------5---------------------------|
B----------7--------8---7s8s7-------------7-------8---7s8s7---------------|
G-------------------------------------------------------------------------|
D-------------------------------------------------------------------------|
A-------------------------------------------------------------------------|
E-7--7---7---7----7---7----------7--7---7---7---7---7---------------------|


E-------------------------------------8-----------------------------------|
B--5---7--3-----------5---7-3---------8-----------------------------------|
G-------------------------------------9-----------------------------------|
D-------------------------------------10----------------------------------|
A-------------------------------------------------------------------------|
E--5-5-5--3--3-3-3-3--5-5-5-3-3-3-3---------------------------------------|


Section 16.
E-7----7--------5----------------7----7-------5---------------------------|
B----------7--------8---7s8s7-------------7-------8---7s8s7---------------|
G-------------------------------------------------------------------------|
D-------------------------------------------------------------------------|
A-------------------------------------------------------------------------|
E-7--7---7---7----7---7----------7--7---7---7---7---7---------------------|


E-------------------------------------------------------------------------|
B--5---7--3-------2h3p2----5---7-3----------------------------------------|
G-------------------------------------------------------------------------|
D-------------------------------------------------------------------------|
A-------------------------------------------------------------------------|
E--5-5-5--3--3-3--3--------5-5-5-3-3-3-3-3--------------------------------|


Section 13.
E-7----7--------5----------------7----7-------5---------------------------|
B----------7--------8---7s8s7-------------7-------8---7s8-----------------|
G---------------------------------------------------------7---------------|
D-------------------------------------------------------------------------|
A-------------------------------------------------------------------------|
E-7--7---7---7----7---7----------7--7---7---7---7---7---------------------|


E--------------------------------------5----------------------5-----------|
B-5---7--3-----------5---7-3~--2-2h3p2---2-2h3p2-----2-2h3p2----2-2h3p2---|
G------------------------------------------------2----------------------2-|
D-------------------------------------------------------------------------|
A-------------------------------------------------------------------------|
E-5-5-5--3--3-3-3-3--5-5-5-3~--3-3-------3-3---------3-3--------3-3-------|

E---------5----------------------5----------------------------------------|
B-2-2h3p2----2-2h3p2-----2-2h3p2----2-2h3p2-------------------------------|
G--------------------2----------------------2-----------------------------|
D-------------------------------------------------------------------------|
A-------------------------------------------------------------------------|
E-3-3--------3-3---------3-3--------3-3-----------------------------------|
Добавлено: 24.03.2012
Другие материалы по этой песне:

Страница создана 24.03.2012
http://primanota.ru/buckethead/whitewash-chords.htm
Привет, Гость.
Предлагаем пройти революционный курс по гитаре.
Подарок от PrimaNota.Ru, забирай!