PrimaNota.ru - самый крупный в мире бесплатный архив песенных текстов, аккордов, табулатур и нот


Buckethead - Lebrontron - таба, видео

Регистрация Запомнить меня
Войти через:  Facebook Google Twitter Vk Yandex Mail.ru

Buckethead - Lebrontron - таба, видео

Печатать
Просмотров: 372
The amazing 4th Lebron James tribute by Buckethead 

Part 1: 0:00 - 0:28

E|-------------------------------------|-------------------------------------|
B|-------8-7------------3----------12--|-------8-7------------3----------12--|
G|-----9-----9-------------------------|-----9-----9-------------------------|
D|---9---------9------4---5-----12-----|---9---------9------4---5-----12-----|
A|-7-------------7--2--------10--------|-7-------------7--2--------10--------|
E|-------------------------------------|-------------------------------------|

E|-------------------------------------|--------------------------------------|
B|-------8-7------------3----------12--|-------8-7------------3---------------|
G|-----9-----9-------------------------|-----9-----9-----------------2--------|
D|---9---------9------4---5-----12-----|---9---------9------4---5-------------|
A|-7-------------7--2--------10--------|-7-------------7--2--------0----------|
E|-------------------------------------|-------------------------------3-2-0--|

Part 2: 0:29 - 0:48 x3

E|---------------------------------------------------------------------------------------------|
B|---------------------------------------------------------------------------------------------|
G|---------------------------------------------------------------------------------------------|
D|-2---------------------2---------------------2-----------------------------------------------|
A|-0--0-3-3-7-7-5-5-2-2--0--0-5-5-8-8-7-7-3-3--0--0-3-3-7-7-5-5-2-2-----3-3-2-2-2-5-5-3-3-2-2--|
E|-------------------------------------------------------------------1-------------------------|

Part 3: 0:48 - 1:10

E|-------0---------------0---1-----|---------------------------------|
B|---1-------1---3---1-----------1-|-------0---------------0---1-----|
G|-2---2---2---2---2---2---2---2---|---0-------0---2---0-----------0-|
D|---------------------------------|-2---2---2---2---2---2---2---2---|
A|---------------------------------|---------------------------------|
E|---------------------------------|---------------------------------|

E|---------------------------------|-------0---------------0---1---1-|
B|-------3---------------1---------|---1-------1---3---1---------1---|
G|---4-------4---5---2-------2---4-|-2---2---2---2---2---2---2-------|
D|-5---5---5---5---3---3---3---3---|---------------------------------|
A|---------------------------------|---------------------------------|
E|---------------------------------|---------------------------------|

E|-------0---------------0---1---1-|---------------------------------|
B|---1-------1---3---1---------1---|-------0---------------0---1-----|
G|-2---2---2---2---2---2---2-------|---0-------0---2---0-----------0-|
D|---------------------------------|-2---2---2---2---2---2---2---2---|
A|---------------------------------|---------------------------------|
E|---------------------------------|---------------------------------|

E|---------------------------------|
B|-------3---------------1---------|
G|---4-------4---5---2-------2---4-|
D|-5---5---5---5---3---3---3---3---|
A|---------------------------------|
E|---------------------------------|

Part 4: 1:11 - 1:23

E|---------------------------------------------------------------------------------------------|
B|---------------------------------------------------------------------------------------------|
G|---------------------------------------------------------------------------------------------|
D|-2---------------------2---------------------2-----------------------------------------------|
A|-0--0-3-3-7-7-5-5-2-2--0--0-5-5-8-8-7-7-3-3--0--0-3-3-7-7-5-5-2-2-----3-3-2-2-2-5-5-3-3-2-2--|
E|-------------------------------------------------------------------1-------------------------|

E|-------------------------------------------------------------------|
B|-------------------------------------------------------------------|
G|-------------------------------------------------------------------|
D|-2---------------------2---------------------2----------------5--3-|
A|-0--0-3-3-7-7-5-5-3-3--0--0-5-5-8-8-7-7-3-3--0--0-3-3-7-7-5-5-5--3-|
E|--------------------------------------------------------------3--1-|

Part 5: 1:24 - 1:48 x4

E|----------7-------------------10-----------------5---------------0-----|
B|------------7--------------------10----------------5---------------0---|
G|------9-------9---------12----------12-------7-------7-------5-------5-|
D|--------9------------------12------------------7---------------5-------|
A|-7--7------------10--10-----------------5--5------------3--3-----------|
E|-----------------------------------------------------------------------|

Part 6: 1:49 - 1:55 x4

E|-----------------|
B|-----------------|
G|-----------------|
D|-5-5-5-5-5-5-5-5-|
A|-3-3-3-3-3-3-3-3-|
E|-----------------|

Part 7: 1:55 - 2:20 x4

E|----------------------------------------------------------------|
B|----------------------------------------------------------------|
G|----------------------------------------------------------------|
D|-5--5-9-5-9-5-5--4--5-7-5-7-5-4--2--4-5-4-5-4-2--2--4-5-4-5-4-2-|
A|-7--7-7-7-7-7-7--5--5-5-5-5-5-5--3--3-3-3-3-3-3--3--3-3-3-3-3-3-|
E|----------------------------------------------------------------|

Part 8: 2:21 - 2:46 x4 (may be a little off because I can't really hear the notes that well)

E|----------------------------------------------------------------------|
B|----------------------------------------------------------------------|
G|----------------------------------------------------------------------|
D|----------------------------------------------------------------------|
A|-------------10---------------------10---------------------10---------|
E|-0--0--10h12----12p10p0-0--0--10h12----12p10p0-0--0--10h12----12p10p0-|

E|-------------------------------------|
B|-------------------------------------|
G|-------------------------------------|
D|-------------------------------------|
A|-----------5-----------------7-------|
E|-0--0--5h7---7p5p0-0--0--7h8---8p7p0-|

solo: 2:46 - 3:17

E|-------------12----12-14----------------------------------------------------|
B|-------------------------15-------------------13-12-------------------------|
G|-14b16-16-16----16----------12-11-11-12-14b16----------11-11h12-11----------|
D|----------------------------------------------------14-------------12-------|
A|----------------------------------------------------------------------12h14-|
E|----------------------------------------------------------------------------|

E|-------------12----12-14-------------------------------------------------|
B|-------------------------15-------------------13-12----------------------|
G|-14b16-16-16----16----------12-11-11-12-14b16-------11-12-12p11----------|
D|----------------------------------------------------------------12-12h14-|
A|-------------------------------------------------------------------------|
E|-------------------------------------------------------------------------|

E|-------------------------------------------------------------------------14--15-14--------|
B|-15b17r15----------------15p17r15----------------15b17r15--------------------------15-----|
G|----------12p11-11h12-12----------12p11-11h12-12----------12p11-11h12-12---------------12-|
D|------------------------------------------------------------------------------------------|
A|------------------------------------------------------------------------------------------|
E|------------------------------------------------------------------------------------------|

E|-------------------------------------------------------------------------|
B|-15b17r15----------------15b17r15----------------15b17-17-17-17-17-17-17-|
G|----------12p11-11h12-12----------12p11-11h12-12-------------------------|
D|-------------------------------------------------------------------------|
A|-------------------------------------------------------------------------|
E|-------------------------------------------------------------------------|

The last note of the solo play it one octave higher.

Repeat Part 8: 3:18 - 3:31 x2

Part 9: 3:31 - 3:44 x2

E|-----------------------|
B|-----------------------|
G|-----------------------|
D|-6-6--9--4-2--6-6--9---|
A|-6-6--9--4-2--6-6--9---|
E|-4-4--7--2-0--4-4--7---|

Part 10: 3:44 - 3:56 x2

E|----------------------------------------|----------------------------------|
B|----------------------------------------|----------------------------------|
G|----------------------------------------|----------------------------------|
D|-7----------------------------10-12-5-3-|-7--------------------------5--3--|
A|-7----------------------------10-12-5-3-|-7--------------------------5--3--|
E|-5-5--5-5-5-5-5-5-5-5-5-5-5-5-8--10-3-1-|-5-5--5-5-5-5-5-5-5-5-5-5-5-3--1--|

Part 11: 3:57 - 4:09 x4

E|-----------------------------------------|
B|-----------------------------------------|
G|-9---------------------------------4-3-2-|
D|-9---------------------------------4-3-2-|
A|-7---------------------------------2-1-0-|
E|---0-0-0-0-0-0-0-0-0-0-0-0-0-0-0-0-------|

Repeat Part 10: 4:10 - 4:22 x2

Part 12: 4:23 - 4:25 

E|-----|
B|-----|
G|-----|
D|-2---|
A|-2---|
E|-0---|

Repeat Part 2: 4:26 - 4:45 x3

Part 13: 4:45 - 4:48

E|---------|
B|---------|
G|---------|
D|-2---9---|
A|-2---9---|
E|-0---7---|

Part 14: 4:48 - 5:15 x4

E|-------------------------------------------------------------|
B|-------------------------------------------------------------|
G|-------------------------------------------------------------|
D|-6--6--6--6-6-6-6--6--6--6-6-6-6--6--6--6-6-6----------------|
A|-6--6--6--6-6-6-6--6--6--6-6-6-6--6--6--6-6-6----------------|
E|-4--4--4--4-4-4-4--4--4--4-4-4-4--4--4--4-4-4-6tr7-5tr6-4tr5-|

Part 15: 5:16 - 5:22 x2

B|-------------------------------------------------|
G|-------------------------------------------------|
D|-------------------------------------------------|
A|-------------------------------------------------|
E|-0-0-0-7-5-0-0-0-0-3-2-0-0-0-0-7-5-0-0-1-0-1-0-1-|

Part 16: 5:23 - 5:50 x4

E|--------------------------------|-----------------------------|
B|--------------------------------|-----------------------------|
G|-9-------9-------9-------12-7-5-|-4-------4-------7-7-7-7-7-7-|
D|-9-------9-------9-------12-7-5-|-4-------4-------7-7-7-7-7-7-|
A|-7-------7-------7-------10-5-3-|-2-------2-------5-5-5-5-5-5-|
E|---0-0-0---0-0-0---0-0-0--------|---0-0-0---0-0-0-------------|

Part 17: 5:50 - 5:55 x18

E|---|
B|---|
G|-7-|
D|-7-|
A|-5-|
E|---|

Repeat Part 14 5:55 - 6:23 x4 fade away to end

End: 6:23
Добавлено: 26.07.2012
Другие материалы по этой песне:

Страница создана 17.04.2012
http://primanota.ru/buckethead/lebrontron-chords.htm
Привет, Гость.
Предлагаем пройти революционный курс по гитаре.
Подарок от PrimaNota.Ru, забирай!