PrimaNota.ru - самый крупный в мире бесплатный архив песенных текстов, аккордов, табулатур и нот


Buckethead - State Theatre - таба, видео

Регистрация Запомнить меня
Войти через:  Facebook Google Twitter Vk Yandex Mail.ru

Buckethead - State Theatre - таба, видео

Печатать
Просмотров: 186
-------------------------------------------------------------------------------
                             SONG NAME - buckethead state theatre
-------------------------------------------------------------------------------
Tabbed by: lewi
Email:

Tuning:1/2 step down CAPO on the 2nd fret bar across 4th fret with 1st finger. play with 
and middle and ring finger. 2 down strokes on the first 2 notes and middle then ring on 
2 notes

e|-----------------------------------------------------------------------------|
B|-----------------4--------4-----------4-------------4------------------------|
G|-------------8-------8-----------8------------8----------repeat 4x-----------|
D|---------6--------6----------6----------6-------------accent the baseline----|
A|-----4--------4---------0----------------------------------------------------|
E|------------------------------------7----------------------------------------|
ill do the rest another time
Добавлено: 03.04.2012
Другие материалы по этой песне:
  • Аккорды и текст

Страница создана 03.04.2012
http://primanota.ru/buckethead/state-theatre-chords.htm
Привет, Гость.
Предлагаем пройти революционный курс по гитаре.
Подарок от PrimaNota.Ru, забирай!