PrimaNota.ru - самый крупный в мире бесплатный архив песенных текстов, аккордов, табулатур и нот


Buckethead - Stick Pit - таба, видео

Регистрация Запомнить меня
Войти через:  Facebook Google Twitter Vk Yandex Mail.ru

Buckethead - Stick Pit - таба, видео

Печатать
Просмотров: 172
Contains all of the song but the section starting around 2 minutes 51 seconds, he 
do that live anyway.  Also, live, I've noticed, he tunes everything flat, as of late.

---0---------0--------0---------------0--|
------4-h-6-----4-h-6----4-h-6--4-h-6----|
-----------------------------------------|
-----------------------------------------|
-----------------------------------------|
-----------------------------------------|  Intro and later Lick 1

--------------------------------------------------|
--------------------------------------------------|
--------------------------------------------------|
--------------------------------------------------|
---7777-3333-6666-2222----------------------------|
------------------------000-0h1-0h1-0h1--  Lick 2-|
   PM---------------------------------------------|PM

-----------------------------------------------------------------------|
-----5-----------------5-----------------------------------------------|
--------5-----------5-----5--------------  Lick 3----------------------|  On Lick 3, lightly
-----------6-----6-----------------------  palm mute, and for the 8th--|
--------------7--------------------------------------------------------|  fret on the low E, you tap
---8--8--8--8--8--8--8--8----------------------------------------------|  with your pinky each time.
 Light Palm Mute                           You pick the other notes,
                                           put tap the 8th fret on low E.

Also, on lick 3, it will occasionally proceed each note up 1 fret or half step, or down 
it changes it up.
I will not tab that as it is pointless, just listen to the song.
Добавлено: 10.04.2012
Другие материалы по этой песне:
  • Аккорды и текст

Страница создана 10.04.2012
http://primanota.ru/buckethead/stick-pit-chords.htm
Привет, Гость.
Предлагаем пройти революционный курс по гитаре.
Подарок от PrimaNota.Ru, забирай!