PrimaNota.ru - самый крупный в мире бесплатный архив песенных текстов, аккордов, табулатур и нот


Buckethead - The Black Forest - таба, видео

Регистрация Запомнить меня
Войти через:  Facebook Google Twitter Vk Yandex Mail.ru

Buckethead - The Black Forest - таба, видео

Печатать
Просмотров: 180
                               *************************
                               *    THE BLACK FOREST   *
                               *************************






e---0-0-0-0-0-0-0-0-0-0-0-0-0-0-0-0--|  this is the begging riff of
B---4-4-4-4-4-4-4-4-4-4-4-4-4-4-4-4--|  this strange little song
G------------------------------------|  that could have only been
D----2-1-2---2-1-2---2-1-2-1-2-1-2---|  concocted by the mind of
A------------------------------------|  Buckethead
E--1-------1-------1-----------------|

e-----------------------------------------------------------------| 
B--2p1-0h1-2p1-0h1-2p1--1-1-1-1-----------------------------------|   
G----------------------5s4s3s2------------------------------------|  
D-----------------------------------------------------------------|
A-----------------------------------------------------------------|  
E-----------------------------------------------------------------| 
                                  

e---------------------12-11-10-9-------------------13-----------------14----------------12-11-10-9|
B-7--6--5--6--7--6----11-10-9--8------------------------------------------------7--6----11-10-9--8|
G-6--5--4--5--6--5----10-9--8--7-----9-10-11-12-13------9-10-11-12-13-----------6--5----10-9--8--7|
D-5--4--3--4--5--4--------------------------------------------------------------5--4--------------|
A-------------------------------------------------------------------------------------------------|
E-------------------------------------------------------------------------------------------------|

Thats about the first half of the song.  Just throw in some more random
slide picking and  you got it.  And for the second part you have 
to slide your pinky from one fret to the other but still pick each
individual note
Добавлено: 23.03.2012
Другие материалы по этой песне:
  • Аккорды и текст

Страница создана 23.03.2012
http://primanota.ru/buckethead/the-black-forest-chords.htm
Привет, Гость.
Предлагаем пройти революционный курс по гитаре.
Подарок от PrimaNota.Ru, забирай!