PrimaNota.ru - самый крупный в мире бесплатный архив песенных текстов, аккордов, табулатур и нот


Buckethead - Symmetrical Slug - таба, видео

Регистрация Запомнить меня
Войти через:  Facebook Google Twitter Vk Yandex Mail.ru

Buckethead - Symmetrical Slug - таба, видео

Печатать
Просмотров: 156
-------------------------------------------------------------------------------
                             Symmetrical Slug - Buckethead
-------------------------------------------------------------------------------
Tabbed by:puppydog
This is my first tab i figured it out on my acoustic I'm not 100% sure this is right but 
its pretty close just listen to it its a pretty easy song.
Tuning:Standard
part 1 this is what I think it is, its hard to tell hear it over the drums
e|------------------------------------------|X8
B|------------------------------------------|
G|------------------------------------------|
D|--4---------------------------------------|
A|------------------------------------------|
E|22-22-223344556677889910109988776655443322|
 part 2
e|----------------------|x4
B|----------------------|
G|757-7/9-----757-7/9\7-|
D|757-7/9-----757-7/9\7-|
A|555-5/7-----555-5/7\5-|
E|----------------------|
back to part 1 again x4
part 3
e|----------|
B|----------|
G|-------8--|
D|-------8--|
A|----5--6--|
E|0220-2----|

neat little solo part
e|-------------------------------|x4
B|-------------------------------|
G|9/11-9-11------9/11-9-11/15-14-|
D|----------9-11-----------------|
A|-------------------------------|
E|-------------------------------|
   back up chords for the solo part (not positive on this)
e|------------------------------------------------------------| X2
B|------------------------------------------------------------|
G|11-9-12-11-11---11-9-12-11-11---7-7-7-6-7-7---11-9-12-11-11-|
D|11-9-12-11-11---11-9-12-11-11---7-7-7-6-7-7---11-9-12-11-11-|
A|9--7-10-9--9----9--7-10-9--9----5-5-5-4-5-5---9--7-10-9--9--|
E|------------------------------------------------------------|
then after that its these two chord picked out
e|-------|x4
B|-------|
G|-11-14-|
D|-11-14-|
A|-9--12-|
E|-------|
then this
e|--------------------------------------|x10
B|--------------------------------------|
G|--------7~----------------------------|
D|--------7~ thats probably wrong-------|
A|--43-3--5~----------------------------|
E|----5-4-------------------------------|

e|-----------------------------------------------------------------|
B|-----------------------------------------------------------------|
G|--------------x2-------------------------------------------------|
D|-4222444222444222555222333222------------------------------------|
A|-----------------------------------------------------------------|
E|-------------------------------2000222000222000333000111000222---|
 this part i had a hard time figuring out for some reason but i think this is close if 
not right
e|------------------------------|
B|------------------------------|
G|------------------------------|
D|------------------------------|
A|----5333555333666333444333----|
E|------------------------------|
then back to main riff

************************************

| /   slide up
| \   slide down
| h   hammer-on
| p   pull-off
| ~   vibrato
| +   harmonic
| x   Mute note
| b   Bend
| pb  Pre-bend
| br  Bend release
| pbr Pre-bend release
| brb Bend release bend

************************************
Добавлено: 02.07.2012
Другие материалы по этой песне:
  • Аккорды и текст

Страница создана 02.07.2012
http://primanota.ru/buckethead/symmetrical-slug-chords.htm
Привет, Гость.
Предлагаем пройти революционный курс по гитаре.
Подарок от PrimaNota.Ru, забирай!