PrimaNota.ru - самый крупный в мире бесплатный архив песенных текстов, аккордов, табулатур и нот


Buckethead - She Sells Sea Shells By The Slauterhouse - таба, видео

Регистрация Запомнить меня
Войти через:  Facebook Google Twitter Vk Yandex Mail.ru

Buckethead - She Sells Sea Shells By The Slauterhouse - таба, видео

Печатать
Просмотров: 176
Уроки эстрадного вокала в Санкт-Петербурге
----------------------------------------------------------------------------
she sells sea shell by the slauterhouse - Buckethead
-------------------------------------------------------------------------------
Tabbed by:Allan Wheatley
Email:wheats59@aol.com

Tuning:regular

e|---17-16-17-------------------------------------------------16-17-16-------|
B|------------17----17-17h19-17----------------------------------------17----|
G|---------------18-------------16b-14---14h16p14-14-16-18-16----------------|
D|---------------------------------------------------------------------------|
A|---------------------------------------------------------------------------|
E|---------------------------------------------------------------------------|

e|17-16------------------------------------------------------16-17-16--------|
B|------17----17-17 17h19-17------------------------------------------17-----|
G|---------18----------------16b-14-14h16h18--14-16-18-16-14-----------------|
D|--------------------------------------------16-18-19-18-16-----------------|
A|---------------------------------------------------------------------------|
E|---------------------------------------------------------------------------|

e|-4-4h5p4--7-5------12-----16-16-16-16p14--14-14p12--------------16-16h19---|
B|-5------5-7-5---14----14---------------------------12-12h14---17-----------|
G|-6--------8-6-----------------------------------------------18-------------|
D|-6--------9-7-11-----------------------------------------------------------|
A|-4--------9-7--------------------------------------------------------------|
E|----------7-5--------------------------------------------------------------|

e|16-16h17-16-----------------------------------------17p16------------------|
B|---17------17---------------------------------------------17p16-17p16------|
G|-------------16-16h18-16-16h18-13-13-13-13-13-14-16------------------------|
D|---------------------------------------------------------------------------|
A|---------------------------------------------------------------------------|
E|---------------------------------------------------------------------------|

e|----------16h17p16-----------------0--5-4----5-4-5-------------------------|
B|-------------------19p17h19p17-----2--5-5---------5--5-5h7-5---------------|
G|-16-16p13------------------------------------------6---------4b--2-4-6-4-2-|
D|-----------------------------------------------------------------4-6-7-6-4-|
A|---------------------------------------------------------------------------|
E|---------------------------------------------------------------------------|

e|4-5-4----4b-4-----------------------------4-5-4-----9-12h14-14-11-11h12-12-|
B|-----5-------5--5-5h7-5------------------------5--9------------------------|
G|--------------6---------4b-4-2--2-4-6-4-2----------------------------------|
D|--------------------------------4-6-7-6-4----------------------------------|
A|--------------------------------0-0-0-0-0----------------------------------|
E|---------------------------------------------------------------------------|

e|12p11-12p11-7h9------7-11--11h12----12-12-12-------------12p11-------------|
B|-----------------7-9-------------14-14-14-12-12-9h10-9--------12-------12/-|
G|------------------------------------------------------9----------11h13-11/-|
D|---------------------------------------------------------------------------|
A|---------------------------------------------------------------------------|
E|---------------------------------------------------------------------------|

e|-7-5----------9--0---------------------------------------------------------|
B|-7-5----------9--0-----------------------------------10-9-7-9-10-x4--------|
G|-8-6----------9--0-----6-7-6-4---4-6-4-2--2-4-2-1--------------------------|
D|-9-7--9p7p6---11-2-----7-7-7-6---6-6-6-4--4-4-4-2--------------------------|
A|-9-7----------11-2-----0-0-0-0---0-0-0-0--0-0-0-0--------------------------|
E|-7-5----------9--0---------------------------------------------------------|

e|--------------------------------------harmony=----9-7-5-7-9x4---------------|
B-----------------------------------------------------------------------------|
G|----------------------------------------------------------------------------|
D|----------------------------------------------------------------------------|
A|----------------------------------------------------------------------------|
E|----------------------------------------------------------------------------|


There You GO    :)

| /  slide up
| \  slide down
| h  hammer-on
| p  pull-off
| ~  vibrato
| +  harmonic
| x  Mute note
===============================================================================
Добавлено: 10.06.2012
Другие материалы по этой песне:
  • Аккорды и текст

Страница создана 10.06.2012
http://primanota.ru/buckethead/she-sells-sea-shells-by-the-slauterhouse-chords.htm
Привет, Гость.
Предлагаем пройти революционный курс по гитаре.
Подарок от PrimaNota.Ru, забирай!