PrimaNota.ru - самый крупный в мире бесплатный архив песенных текстов, аккордов, табулатур и нот


Buckethead - Spot The Psycho - таба, видео

Регистрация Запомнить меня
Войти через:  Facebook Google Twitter Vk Yandex Mail.ru

Buckethead - Spot The Psycho - таба, видео

Печатать
Просмотров: 135
Уроки эстрадного вокала в Санкт-Петербурге
Spot the Psycho by the Cornbugs
from Spot the Psycho

I'll be your friend...
e||------------------------------||
b||------------------------------||
g||------------------------------||
d||-3-3---3-3-3---3-3---3-3-3-3--||
a||-3-3---3-3-3---3-3---3-3-3-3--||
E||-1-1---1-1-1---1-1---1-1-1-1--|| 
<----------1/2pm------------>
stare at the skies...
e||-------------||
b||-------------||
g||--12--10--9--||
d||-------------||
a||-------------||
E||-------------||
spot the psycho......
e||-----------------------------------||
b||-----------------------------------||
g||-----------------------------------||
d||-3-3-3-8-8-8-10-10-10-9-9-9-8-8-8--||
a||-3-3-3-8-8-8-10-10-10-9-9-9-8-8-8--||
E||-1-1-1-6-6-6-8--8--8--7-7-7-6-6-6--||
<----------------pm-------------->
spot the psycho.......
e||------------------------||
b||------------------------||
g||------------------------||
d||------------------------||
a||--6---5---4---3--2---2--||
E||----7---6---5--4---3-0--||
spot the psycho.....
e||---------------------||    I don't know this part exactly but you can
b||-15-----15-----/-21--||     get a close sound by doing this.
g||----17^----17^-------||
d||---------------------||
a||---------------------||
E||---------------------||
he's over here he's over there..
(--over neck pickup--)
e||--------------------------||
b||--------------------------||
g||--------------------------||
d||-/--3-3-3-3---------------||
a||-/--3-3-3-3---------------||
E||-/--1-1-1-1---------------||
might be your mom..
e||-----------------------------------||
b||--------<12>----<12>-<16>----------||
g||------------<12>---------<16>------||
d||-3-3-3-----------------------<16>--||
a||-3-3-3-----------------------------||
E||-1-1-1-----------------------------||
might be your dad...
e||---------<20>-----------||
b||------------<20>--------||
g||---------------<16>-----||
d||-3----------------<16>--||
a||-3----------------------||
E||-1----------------------||
gas station attendant..
e||-----------<20>---------------||
b||------------------------------||
g||------------------------------||
d||-x-3--3-----------------------||
a||-x-3--3-----------------------||
E||-x-1--1-----------------------||

e||--------------------------(x)---||
b||----------------------(x)-------||
g||-----------------<20>-----------||
d||-3-3-3-------<20>---------------||
a||-3-3-3--------------------------||
E||-1-1-1--------------------------||

e||-------------------||
b||-------------------||
g||-------------------||
d||--3-----------3----||
a||--3-----------3----||
E||--1-----------1----||

Добавлено: 12.07.2012
Другие материалы по этой песне:
  • Аккорды и текст

Страница создана 12.07.2012
http://primanota.ru/buckethead/spot-the-psycho-chords.htm
Привет, Гость.
Предлагаем пройти революционный курс по гитаре.
Подарок от PrimaNota.Ru, забирай!