PrimaNota.ru - самый крупный в мире бесплатный архив песенных текстов, аккордов, табулатур и нот


Buckethead - Skin Cracked Kanals - бас-таба, видео

Регистрация Запомнить меня
Войти через:  Facebook Google Twitter Vk Yandex Mail.ru

Buckethead - Skin Cracked Kanals - бас-таба, видео

Печатать
Просмотров: 139
riff 1 (0:06 to 0:31)
g||---------1---------1----||
d||------------------------||
a||------------------------||
E||--0-1-1-----0-1-1-------||

riff 2 (0:31 to 0:56) (1:09 to 1:46) (2:21 to 2:30) (2:34 to 2:46)
g||---------3--------3-----||
d||------------------------||
a||------------------------||
E||--0-3-3----0-3-3--------||

riff 3 (0:56 to 1:09) (1:46 to 1:57) (2:46 to 2:58)
g||--------6--------6------||
d||------------------------||
a||------------------------||
E||--0-5-5-6--0-5-5-6------||

riff 4 (1:57 to 2:21)
g||---------------||
d||---------------||
a||---------------||
E||--0--5--4-3-2--||

riff 5 (2:30 to 2:34)
g||-----------1---------0--2--1---------||
d||-------------------------------------||
a||-------------------------------------||
E||----0-1-1-----0-1-1------------------||

riff 6 (2:58 to 3:06)
g||---------3-2-1----||
d||------------------||
a||------------------||x
E||--0-1-1-----------||

after this Buckethead starts to Buckettap on BASS!!
(3:22 to 3:32)
g||-t17-h12-t16-h11-t19-h14-t18-h13-t17-h12-t16-h12-t15-h12----t15----------t12--------t13-||
d||---------------------------------------------------------t12-----t12--t15---t15--t15----||
a||----------------------------------------------------------------------------------------||x2
E||----------------------------------------------------------------------------------------||


*buckethead doing his usual*
Добавлено: 22.07.2012
Другие материалы по этой песне:
  • Аккорды и текст

Страница создана 22.07.2012
http://primanota.ru/buckethead/skin-cracked-kanals-chords.htm
Привет, Гость.
Предлагаем пройти революционный курс по гитаре.
Подарок от PrimaNota.Ru, забирай!