PrimaNota.ru - самый крупный в мире бесплатный архив песенных текстов, аккордов, табулатур и нот


Buckethead - La Wally - таба, видео

Регистрация Запомнить меня
Войти через:  Facebook Google Twitter Vk Yandex Mail.ru

Buckethead - La Wally - таба, видео

Печатать
Просмотров: 103
My second tab. Arranged sloppily, but my apologies. A beautiful Buckethead song off of 
his 2012
album "Electric Sea"
For lead guitar
E STANDARD TUNING
LIGHT-MID DISTORTION
0:30:

E|---------------------------------------------|
B|-12--12-12-12-12--12-12-12-10--10-9-7--9-7-5-|
G|---------------------------------------------|
D|---------------------------------------------|
A|---------------------------------------------|
E|---------------------------------------------|

0:46:

E|-----------------------------------------------|
B|-17--16-14-12-16-17--16\14\12--12--12-12-12-12-|
G|-----------------------------------------------|
D|-----------------------------------------------|
A|-----------------------------------------------|
E|-----------------------------------------------|

0:56:

E|----------------------------------------------------------------------------|
B|-12-12-17-19-19-19-19-19-19-19-19-20-20-20-20-20-20-20-20\17-12-12-12-12-12-|
G|----------------------------------------------------------------------------|
D|----------------------------------------------------------------------------|
A|----------------------------------------------------------------------------|
E|----------------------------------------------------------------------------|

1:12:

E|-----------------------|
B|-13-12\10-12--12---8-5-|
G|-----------------------|
D|-----------------------|
A|-----------------------|
E|-----------------------|

1:31:

E|-----------------------------------------------------------------|
B|-13--15-17-17-15-13--15--17-15-8---18--18--17--12---15\13--15-8--|
G|-----------------------------------------------------------------|
D|-----------------------------------------------------------------|
A|-----------------------------------------------------------------|
E|-----------------------------------------------------------------|

2:01:

E|-----------------17--17---------15-12-10-8-13-----13-12--10--8-|
B|-20--20--13---13---------15---8---------------10---------------|
G|---------------------------------------------------------------|
D|---------------------------------------------------------------|
A|---------------------------------------------------------------|
E|---------------------------------------------------------------|

2:29:

E|----15-----------------------------------------------------------------|
B|-17----11--12----12-12-12-12-12--12-12-12-12--12-17--16-14-12-16-17-17-|
G|-----------------------------------------------------------------------|
D|-----------------------------------------------------------------------|
A|-----------------------------------------------------------------------|
E|-----------------------------------------------------------------------|

2:57:

E|---9-7\5\4---------------------------------------------------19-19-19-19\0-|
B|-5---------7-5--19-19-19-19-19-19-19-20-20-20-20-20-20-20-20---------------|
G|---------------------------------------------------------------------------|
D|---------------------------------------------------------------------------|
A|---------------------------------------------------------------------------|
E|---------------------------------------------------------------------------|

3:20:

E|-------------------------------------------------|
B|-17-19-19/20\19\17-17--17-19-19/20-19-17-17------|
G|-----------------------------------------------9-| (Actual last note is off the fretboard of 24 frets)
D|-------------------------------------------------| (Just pick any fret that equals an E I guess)
A|-------------------------------------------------|
E|-------------------------------------------------|
Добавлено: 15.05.2015
Другие материалы по этой песне:
  • Аккорды и текст

Страница создана 15.05.2015
http://primanota.ru/buckethead/la-wally-chords.htm
Привет, Гость.
Предлагаем пройти революционный курс по гитаре.
Подарок от PrimaNota.Ru, забирай!