PrimaNota.ru - самый крупный в мире бесплатный архив песенных текстов, аккордов, табулатур и нот


Buckethead - Celery - таба, видео

Регистрация Запомнить меня
Войти через:  Facebook Google Twitter Vk Yandex Mail.ru

Buckethead - Celery - таба, видео

Печатать
Просмотров: 123
Уроки эстрадного вокала в Санкт-Петербурге
-------------------------------------------------------------------------------
                             'CELERY' - Buckethead
-------------------------------------------------------------------------------
Tabbed by: dropdeee
E-mail: westcoastflat@hotmail.com

Tuning: half-step down
( ) = muted notes

*Heads up*  I'm very much a novice player and some parts are, well, just too advanced for my skill level or 
ability so please feel free to edit those parts with question marks.   Cheers :)


INTRO:

e|---------------------------------------------------------------------------|
B|---------------------------------------------------------------------------|
G|---------------------------------------------------------------------------|
D|--------------4---------------------------4--------------------------------|
A|-6----6----2--2---6------4-4--/6-6-----2--2--------------------------------|
E|-4----4----0------4------2-2--/4-4-----0-----------------------------------|

e|------------------------------------------------9h11~9~--7h9p7\6-----------|
B|-----/4---------/4----7h9~7---------------------------------------7--------|
G|-4-6--------4-6---------------8-6-4~-6-/8-8~-------------------------------|
D|-------------------6-------------------------6-----------------------------|
A|-----------------------~---------------------------------------------------|
E|---------------------------------------------------------------------------|

e|--------------------------------------------------------------9-7----------|
B|------------------------------------------------------7-7~-5------9-7-9----|
G|-4-4h6-4h6p4\3-3----------------------------------3-4----------------------|
D|----------------4----4---4h6p4-----------------4------------------------6\-|
A|-----------------4/6---6-------4--2h4h6------2--------------------------4\-|
E|-----------------------------------------4~~-------------------------------|






00:41
      (this phrase muted for a total of 32 counts)
e|---------------------------------------------------------------------------|
B|---------------------------------------------------------------------------|
G|---------------------------------------------------------------------------|
D|---------------------------------------------------------------------------|
A|---(6-6-6-6-6-6-6-6-6-6-6-6-6-6-6-6-6-6-6-6-6-6-6-6-6-6-6-6-6-6-6-6)-------|
E|---(4-4-4-4-4-4-4-4-4-4-4-4-4-4-4-4-4-4-4-4-4-4-4-4-4-4-4-4-4-4-4-4)-------|


      (this phrase also muted for a total of 32 counts)
e|---------------------------------------------------------------------------|
B|---------------------------------------------------------------------------|
G|---------------------------------------------------------------------------|
D|---------------------------------------------------------------------------|
A|---(6-6-6-6-6-6-6-6-6-6-6-6-6-6-6-6-6-6-6-6-6-6-6-6-6-6-6-6-6-6-6-6)-------|
E|---(4-4-4-4-4-4-4-4-4-4-4-4-4-4-4-4-4-4-4-4-4-4-4-4-4-4-4-4-4-4-4-4)-------|


               
e|---------------------------------------------------------------------------|
B|--------------------------7------------------------------------------------|
G|---------------------------------------------------------------------------|
D|------------------------9--(9)---------------------------------------------|
A|--6--(6-6-6-6-6-6)---7--------(9)--11\--4--6---(6-6-6-6-6-6)---------------|
E|--4--(4-4-4-4-4-4)----------------------2--4---(4-4-4-4-4-4)---------------|


           
e|---------------------------------------------------------------------------|
B|--------7---------------------------------------7--------------------------|
G|---------------------------------------------------------------------------|
D|-----9---(9)---------------------------------9-----9-----------------------|
A|--7----------9--11\--4--6--(6-6-6-6-6-6)--7-----------9--11\--4--2-2-------|
E|---------------------2--4--(4-4-4-4-4-4)----------------------2--0-0-------|



      (X X) (X X) (X X) (X X) (X X) (X X X X)       (X X) (X X) (X X)
e|---------------------------------------------------------------------------|
B|---------------------------------------------------------------------------|
G|---------------------------------------------------------------------------|
D|-----X-6---6-8---8-9---9-8---8-6---6-4-4-4---2-2---X-6---6-8---8-9---------|
A|-----X-4---4-6---6-7---7-6---6-4---4-2-2-2---0-0---X-4---4-6---6-7---------|
E|---------------------------------------------------------------------------|



   (X  X  X  X  X X)
e|---------------------------------------------------------------------------|
B|---------------------------------------------------------------------------|
G|---------------------------------------------------------------------------|
D|--9-11-11-11-11-11-----11-11/13--X--13--------11-13-13---13-13-------------|
A|--7-9--9--9--9--9------9--9-/11--X--11--------9--11-11---11-11-------------|
E|---------------------------------------------------------------------------|


e|---------------------------------------------------------------------------|
B|---------------------------------------------------------------------------|
G|------11-------------------------------------------------------------------|
D|--11--9--13-----13-13-------------11--13--9--------------------------------|
A|--9------11-----11-11-------------9---11--7--(let ring)--------------------|
E|---------------------------------------------------------------------------|



01:36

  ( ) = muted notes           *FIRST TIME*
e|---------------------------------------------------------------------------|
B|---------------------------------------------------------------------------|
G|---------------------------------------------------------------------------|
D|---------------------------------------------------------------------------|
A|------(4)-6--------4----(4)-6----------------------------------------------|
E|---------------(4)--------------(6)----------------------------------------|
E|--4~~-------(4)------(4)------7-----7-(6)-7-(2)-4~~------------------------|


                              *SECOND TIME*
e|---------------------------------------------------------------------------|
B|---------------------------------------------------------------------------|
G|---------------------------------------------------------------------------|
D|-------4--6--------4----(4)-6----------------------------------------------|
A|----------------4----------------(6)---------------------------------------|
E|------------(4)------(4)-----(7)-----(7)-(6)-(2)-(6)--4~~------------------|


                              *THIRD TIME*
e|---------------------------------------------------------------------------|
B|---------------------------------------------------------------------------|
G|---------------------------------------------------------------------------|
D|------(4)-6--------4----(4)-6----------------------------------------------|
A|---------------(4)--------------(6)----------------------------------------|
E|------------(4)------(4)------7-----7-(6)-7-(2)-4~~------------------------|

              
                              *FOURTH TIME*
e|---------------------------------------------------------------------------|
B|---------------------------------------------------------------------------|
G|---------------------------------------------------------------------------|
D|-------4--6--------4----(4)-6----------------------------------------------|
A|----------------4----------------(6)---------------------------------------|
E|------------(4)------(4)-----(7)-----(7)-(6)-(2)-(6)--4--------------------|


  01:57
e|---------------------------------------------------------------------------|
B|------------------------7--------------9-9--11------12-11------------------|
G|----------4\3-------------8~--6----------------11---------11-------13~-13\-|
D|-----6--------4------(6)----------9--9-----------------------13------------|
A|--(6)-(6)-------4-(6)-------------7--------------11-------------11---------|
E|---------------------------------------------------------------------------|


e|---------------------------------------------------------------------------|
B|--------------------9----------------------------------7-7-----------------|
G|-----------------------8----9--8--------------------------------6----------|
D|--------6--8--9--6----------------9----------9-------6--------6---6--------|
A|--6--6-------------------------------11---------7~~---------7--------------|
E|--4--------------------------------------11--------------------------------|


e|---------------------------------------------------------------------------|
B|---------------------------------------------------------------------------|
G|------6------8-8---------9-9-9-9-9-9-9\------------------------------------|
D|----6------8-----------9-----------------11-11-11-11-11-11-11-11-11-11-11--|
A|--4------6--------7~---------------------9--9--9--9--9--9--9--9--9--9--9---|
E|---------------------------------------------------------------------------|


e|---------------------------------------------------------------------------|
B|---------------------------------------------------------------------------|
G|---------------------------------------------------------------------------|
D|--11-11-11--------------------4--------------------------4h6~~-------------|
A|--9--9--9------------7--6-----------------------7--6-----------------------|
E|-----------------4~~-------7-----6~---------4~~-------7--------------------|

              
e|---------------------------------------------------------------------------|
B|---------------------------------------------------------------------------|
G|---------------------------------------------------------------------------|
D|--------------------------4-------4----------------------------------------|
A|----------------7-6--(X)----2--2-----2---------4---------------------------|
E|--4~~~-7--6--(4)-------------------------2--2------------------------------|

                       
e|---------------------------------------------------------------------------|
B|---------------------------------------------------------------------------|
G|----------------------------------------------------------------4----------|
D|-----------------------4--------------------------------------4------------|
A|-------7-6~--------------7~---6----------7-6----------1h2-2--------6-------|
E|--4~-7-------7-6-4--(7)---------7-4~---7-------7-6-2---------------4-------|



e|---------------------------------------------------------------------------|
B|---------------------------------------------------------------------------|
G|-------------4-------------------------------------------------------------|
D|---------------6-----------------------------------------------------------|
A|--(6)(6)(6)------------------4/6~~--X-6-(6)(6)(8)--------------------------|
E|--(4)(4)(4)-----(2)-4-(4)-6---------X-4-(4)(4)(6)--7\4--7-6--9-7~~---------|




   2:52                        *FIRST TIME*
e|---------------------------------------------------------------------------|
B|---------------------------------------------------------------------------|
G|---------------------------------------------------------------------------|
D|----------------2---------------1--------------4---------------------------|
A|---------------------------------------------------(6)(6)(6)(6)(6)(6)(6)---|
E|--4p2--4p2--4------(4)-(2)-(4)----(4)-(2)-(4)------(4)(4)(4)(4)(4)(4)(4)---|

                              
e|---------------------------------------------------------------------------|
B|---------------------------------------------------------------------------|
G|---------------------------------------------------------------------------|
D|----------------2---------------1------------------------------------------|
A|------------------------------------------------2---4----------------------|
E|--4p2--4p2--4------(4)-(2)-(4)----(4)-(2)-(4)---0---2----------------------|




   3:02                         *SECOND TIME*                          
e|---------------------------------------------------------------------------|
B|---------------------------------------------------------------------------|
G|---------------------------------------------------------------------------|
D|----------------2---------------1--------------4---------------------------|
A|---------------------------------------------------(6)(6)(6)(6)(6)(6)(6)---|
E|--4p2--4p2--4------(4)-(2)-(4)----(4)-(2)-(4)------(4)(4)(4)(4)(4)(4)(4)---|


e|---------------------------------------------------------------------------|
B|---------------------------------------------------------------------------|
G|---------------------------------------------------------------------------|
D|----------------2---------------1------------------------------------------|
A|------------------------------------------------2---4----------------------|
E|--4p2--4p2--4------(4)-(2)-(4)----(4)-(2)-(4)---0---2----------------------|




   3:12                          *THIRD TIME*
e|---------------------------------------------------------------------------|
B|---------------------------------------------------------------------------|
G|---------------------------------------------------------------------------|
D|----------------2---------------1--------------4---------------------------|
A|---------------------------------------------------(6)(6)(6)(6)(6)(6)(6)---|
E|--4p2--4p2--4------(4)-(2)-(4)----(4)-(2)-(4)------(4)(4)(4)(4)(4)(4)(4)---|



e|---------------------------------------------------------------------------|
B|---------------------------------------------------------------------------|
G|---------------------------------------------------------------------------|
D|----------------2---------------1-------------------4----------------------|
A|------------------------------------------------2---2---4-4----------------|
E|--4p2--4p2--4------(4)-(2)-(4)----(4)-(2)-(4)---0-------2-2----------------|




   3:22                           *FOURTH TIME*
e|---------------------------------------------------------------------------|
B|---------------------------------------------------------------------------|
G|---------------------------------------------------------------------------|
D|----------------2---------------1---------------4--------------------------|
A|---------------------------------------------------(6)(6)(6)(6)(6)(6)(6)---|
E|--4p2--4p2--4------(4)-(2)-(4)----(4)-(2)-(4)------(4)(4)(4)(4)(4)(4)(4)---|


e|---------------------------------------------------------------------------|
B|---------------------------------------------------------------------------|
G|---------------------------------------------------------------------------|
D|----------------2---------------1-------------------4-4--------------------|
A|------------------------------------------------2---2-2--4-4---------------|
E|--4p2--4p2--4------(4)-(2)-(4)----(4)-(2)-(4)---0--------2-2---------------|


  03:32
e|---------------------------------------------------------------------------|
B|---------------------------------------------------------------------------|
G|---------------------------------------------------------------------------|
D|--6-----------------------------4--4---6--6\-------6-----------------------|
A|-----6-----------------4-----6------------------------6----------------4---|
E|-------(7)-4----(6)(7)----------------------------------(7)-4---(6)(7)-----|


e|---------------------------------------------------------------------------|
B|---------------------------------------------------------------------------|
G|---------------------------------------------------------------------------|
D|----------------------6------------------------4--4--6--6\---4-------------|
A|--6--7--7h9--7--6-------6---------------4---6----------------2---4---2-----|
E|--------------------------(7)-4---6-(7)--------------------------2-----2---|



e|---------------------------------------------------------------------------|
B|---------------------------------------------------------------------------|
G|---------------------------------------------------------------------------|
D|------------6p4-6\---------------------------------------------6p4-6\------|
A|--------------------4p2-4--------------------------------------------------|
E|-(4)(2)-4~------------------7p6-7---6h7-6-2-2--------(4)(2)-4--------------|


e|---------------------------------------------------------------------------|
B|---------------------------------------------------------------------------|
G|---------------------------------------------------------------------------|
D|------------------9(let ring)--------------------(6)(4)-6\-----------------|
A|--4p2-4----4/7h9--9--9--7--9\---------------------------------4-2-4--------|
E|--------------------------------------(4)(2)-4-----------------------------|


e|---------------------------------------------------------------------------|
B|----------------------------0-0--------------------------------------------|
G|--------------------------3------------------------------------------------|
D|--1h2p1--------4-4-4----3------------4-------------------4-----------6-----|
A|---------4--2--2-2-2----1--------4-4---6-(6-6-6-6-6-6-6)-2-(X)-6-(X)-4-(X)-|
E|---------------------------------2-----4-(4-4-4-4-4-4-4)---(X)-4-(X)---(X)-|


e|---------------------------------------------------------------------------|
B|---------------------------------------------------------------------------|
G|---------------------------------------------------------------------------|
D|--------4-------------------6-----------4----------------------------------|
A|--6-(X)-2-(X)-6-(6-6-6-6-6)-4-(X)-6-(X)-2-(X)-4-(X)-6-(6-6-6-6-6-6-6)------|
E|--4-(X)---(X)-4-(4-4-4-4-4)---(X)-4-(X)---(X)-2-(X)-4-(4-4-4-4-4-4-4)------|



  04:23
e|---------------------------------------------------------------------------|
B|---------------------------------------------------------------------------|
G|-------------------------------------------------4-4-4-44444---------------|
D|--4-----------6-----------4-------------------4--2-2-2-22222---------------|
A|--2-(X)-6-(X)-4-(X)-6-(X)-2-(X)-6-(6-6-6-6-6)-2----------------------------|
E|----(X)-4-(X)---(X)-4-(X)---(X)-4-(4-4-4-4-4)------------------------------|


e|---------------------------------------------------------------------------|
B|---------------------------------------------------------------------------|
G|---------------------------------------------------------------------------|
D|--6p4-6---------6p4-6------------------------6p4-6---------6p4-4-----------|
A|------------------------6-6-6-6---4-6-9~~--------------------------9-9-9-9-|
E|---------4p2-4----------4-4-4-4---2-4-7~~-----------4p2-4----------7-7-7-7-|


e|---------------------------------------------------------------------------|
B|-----------------------(4)---------------(4)------(7)---(4)----------------|
G|--------------------------(4)---(6)(4)------(4)------------(4)---(6)-------|
D|-------------2---------------(6)------(6)------(6)---(6)------(6)----------|
A|--4-4-4-4----2-------------------------------------------------------------|
E|--2-2-2-2----0------(4)----------------------------------------------------|


e|--------------------------------(4)----------------------------------------|
B|-----(4)---------------(4)------------(7)---(4)-----------------(4)--------|
G|--------(4)---(6)(4)------(4)--------------------------------------(4)-----|
D|-----------(6)------(6)------(6)---(6)---(6)--------------------------(6)--|
A|---------------------------------------------------------------------------|
E|--(4)--------------------------------------------------------(4)-----------|


e|---------------------------------------------------------------------------|
B|-----------(4)------(7)---(4)---------------(4)------(5)(4)----------------|
G|--(6)(4)------(4)------------(4)(6)------------(4)------------(6)----------|
D|--------(6)------(6)---(6)---------(6)------------(6)------(6)-------------|
A|---------------------------------------------------------------------------|
E|-----------------------------------------(4)-------------------------------|



e|---------------------------------------------------------------------------|
B|-----(4)-------------------------------------------------------------------|
G|--------(4)---(6)---(4)----------------------------------------------------|
D|--(6)------(6)---(6)---(6)-------------------------------------------------|
A|----------------------------6-(6-6-6-6)---9\6---9\6-(6-6-6-6-6-6)--4/6-----|
E|----------------------------4-(4-4-4-4)---7\4---7\4-(4-4-4-4-4-4)--2/4-----|



e|---------------------------------------------------------------------------|
B|---------------------------------------------------------------------------|
G|---------------------------------------------------------------------------|
D|---------------------------------------------------------------------------|
A|--(6-6-6-6)---9\6---9\6--6--(6-6-6-6-6)-X-(6-6-6-6-6)---9\6---9\6----------|
E|--(4-4-4-4)---4\4---7\4--4--(4-4-4-4-4)-X-(4-4-4-4-4)---7\4---7\4----------|


e|---------------------------------------------------------------------------|
B|---------------------------------------------------------------------------|
G|---------------------------------------------------------------------------|
D|---------------------------------------------------------------------------|
A|--(6-6-6-6-6-6)--4/6--(6-6-6-6)---9\6---9\6--6--(6-6-6-6-6-6)--------------|
E|--(4-4-4-4-4-4)--2/4--(4-4-4-4)---7\4---7\4--4--(4-4-4-4-4-4)--------------|





PRE-SOLO:  (5:21)

e|---------------------------------------------------------------------------|
B|---------------------------------------------------------------------------|
G|---------------------------------------------------------------------------|
D|---------------------------------------------------------------------------|
A|--11~~-9~~-7~~-9~~-11~~-9~~-7~~-9~~----------------------------------------|
E|---------------------------------------------------------------------------|


SOLO:   (5:41)

e|---------------------------------------------------------------------------|
B|----------------------------------------------------------------9/11-11~~--|
G|------------------------------------------------------11-9\8-8-------------|
D|--------------------------------------------9~~-11h13----------------------|
A|---------------------------------------------------------------------------|
E|---------------------------------------------------------------------------|

e|---------------------------------------------------------------------------|
B|-/12-12~-/14-14-14-14-14/16-16-16h19--21-21-----------19-21----------------|
G|--------------------------------------------18-20-20--------16-15--15h16---|
D|---------------------------------------------------------------------------|
A|---------------------------------------------------------------------------|
E|---------------------------------------------------------------------------|

e|---------------------------------------------------------------------------|
B|------------------------------------------------------11h12p11--11h12------|
G|-15-13-11h13~11-------------------11h13-13fb~~-13br13-----------------11---|
D|----------------13p11-9/11h13~~-13-----------------------------------------|
A|---------------------------------------------------------------------------|
E|---------------------------------------------------------------------------|

e|---------------------------------------16-----------16-----------16--------|
B|------------------------------16-16-19----14-16--19--------14-19----14-16--|
G|------------------------------------------------------16~------------------|
D|-13p11-11h13--------------13~~---------------------------------------------|
A|-------------11-11~/13h14--------------------------------------------------|
E|---------------------------------------------------------------------------|


e|----16--------------------16-18------19fb--18------------------------------|
B|-19--------------------16---------16----------19--19h21p19-----------------|
G|-------16~--15-13-------------------------------------------16h18p16\15----|
D|---------------------------------------------------------------------------|
A|---------------------------------------------------------------------------|
E|---------------------------------------------------------------------------|


e|----------------------------------------12-11--------14-12-11----16-18-----|
B|-------------------------------------14-------12--------------12-----------|
G|-13-11h13--11---------------------11-------------13------------------------|
D|--------------11-9-11-13----13-14------------------------------------------|
A|-------------------------11------------------------------------------------|
E|---------------------------------------------------------------------------|


e|-18hb-------20hb-19~~--19-19-18-18-18-18-18-18-18~~---16-18-19-21-23-------|
B|------19-16---------------------------------------16~----------------23-23-|
G|---------------------------------------------------------------------------|
D|---------------------------------------------------------------------------|
A|---------------------------------------------------------------------------|
E|---------------------------------------------------------------------------|


e|-------------19-23~-hb23--21h23p21-19-18-------21h23~-21h23p21-19-18-------|
B|-23b-21~--21-----------------------------19--------------------------19----|
G|--------------------------------------------18--------------------------18-|
D|---------------------------------------------------------------------------|
A|---------------------------------------------------------------------------|
E|---------------------------------------------------------------------------|


e|--23-21-19-18----------------------------------------------16----18----19--|
B|--------------19----19-19h21-19----------------------19-16----16----16-----|
G|-----------------18-------------18-16----16p15h16--------------------------|
D|--------------------------------------18----------18-----------------------|
A|---------------------------------------------------------------------------|
E|---------------------------------------------------------------------------|

e|----18b+r------------------------------------------------------------------|
B|-16-------19-----------19--------------------------------------------------|
G|-------------16--18fb~~----18fb18-16-18fb-18fb18p16----18------------------|
D|----------------------------------------------------18----18---?????????---|
A|---------------------------------------------------------------------------|
E|---------------------------------------------------------------------------|



e|---------------------------------------------------------------------------|
B|---------------------------------------------------------------------------|
G|---13~~~---------------------------/13~~--11---------------------11h13~----|
D|--------11h13p11------------------------------11-----------11h13-----------|
A|------------------14--11~~--11--14----------------14~--11------------------|
E|---------------------------------------------------------------------------|



e|---------------------------------------------------------------------------|
B|---------------------------------------------------------------------------|
G|--11------------------/13~~-11---------------------11h13~~-11--------------|
D|------11------------------------11-----------11h13-------------11----------|
A|----------14~--11--14---------------14~~-11------------------------14~-11--|
E|---------------------------------------------------------------------------|



e|---------------------------------------------------------------------------|
B|---------------------------------------------------------------------------|
G|-----13~-11-------------------11h13~-11---------------13~--11--------------|
D|------------11----------11h13-----------11--------------------11-----------|
A|--14-----------14~--11---------------------14~-11--14------------14~-11----|
E|---------------------------------------------------------------------------|


            
e|---------------------------------------------------------------------------|
B|------------------------------------------12--14brb(14)~~~~14fbr12h14p12---|
G|-----/13~~~~~~~~~~~~~~--(-K-K-K-K-K-K-K-)----------------------------------|
D|---------------------------------------------------------------------------|
A|--14-----------------------------------------------------------------------|
E|---------------------------------------------------------------------------|



e|------------16-----18fb~~pbr18(release to half bend)~~~~~~~~----16---------|
B|--14/16--16----16---------------------------------------------------16\----|
G|---------------------------------------------------------------------------|
D|---------------------------------------------------------------------------|
A|---------------------------------------------------------------------------|
E|---------------------------------------------------------------------------|



e|---------------------------------------------------------------------------|
B|-----9--7~--5h7p5\4----------9--7~--5h7p5\4--------------------------------|
G|--8-(8)--------------4----8-(8)--------------4---------------4-------------|
D|--------------------------------------------------6/8~~\6~~-(6)------------|
A|---------------------------------------------------------------------------|
E|---------------------------------------------------------------------------|



e|---------------------------------/9~----/11------11---/14--/16-------------|
B|--------(4)-5h7p5\4---9--11--12-------7-----9~------9----------16~~\-------|
G|-----(6)-------------------------------------------------------------------|
D|--(6)----------------------------------------------------------------------|
A|---------------------------------------------------------------------------|
E|---------------------------------------------------------------------------|



  08:02
e|---------------------------------------------------------------------------|
B|---------------------------------------------------------------------------|
G|--8-11-11/13---8-11p8-11/13---8-11-11/13---8-11-13-------------------------|
D|-----------------------------------------------------13p11-9h11------------|
A|---------------------------------------------------------------------------|
E|---------------------------------------------------------------------------|



e|---------------------------------------------------------------------------|
B|---------------------------------------------------------------------------|
G|------11-------------------------------------------------------------------|
D|--11b----11brp9h11p9-------------------------------------------------------|
A|---------------------11~---11p9--------------------------------------------|
E|--------------------------------11h14p11\9-7h9-9/11-4--6-7-----------------|



e|----------------------9-7--/14-11------------------------------------------|
B|-----------------9-7---------------14-12--11-12--11h12-11------------------|
G|-------8----8-6-----------------------------------------------11--13-------|
D|--8-6---(6)------------------------------------------------13--------11----|
A|---------------------------------------------------------------------------|
E|---------------------------------------------------------------------------|



e|---------------------------------------------------------------------------|
B|----------------------------------7----11---12---12h14----/16--------------|
G|-----------------13-13~------8------------8----8-------11-----13-----------|
D|--9-11h13------------------6---9----9--------------------------------------|
A|-----------11-11-----------------------------------------------------------|
E|---------------------------------------------------------------------------|



e|---------------------------------------------------------------------------|
B|--16-16/19~-19p16-19-19fb~~-19br-16-14-16-14/16--19------------------------|
G|----------------------------------------------------18br-16-18-------------|
D|---------------------------------------------------------------------------|
A|---------------------------------------------------------------------------|
E|---------------------------------------------------------------------------|



e|---------------------------------------------------------------------------|
B|--16-15-13----------13~~~~~~--11h13p11-------------------------------------|
G|-----------16-13-16--------------------11-9~~----9~-------11--9\8--8~~~~~--|
D|----------------------------------------------11-----9h11------------------|
A|---------------------------------------------------------------------------|
E|---------------------------------------------------------------------------|


  08:40
e|---------------------------------------------------------------------------|
B|---------------------------------------------------------------------------|
G|--8\-------------------------------------------8---------------------------|
D|-------------------------------------8-11-9~~~(9)--------------------------|
A|------(slide up to 14 and down)---11---------------------------------------|
E|---------------------------------------------------------------------------|


  
   *?????? = beyond my skill level.  Feel free to edit these parts, please!*
e|---------------------------------------------------------------------------|
B|---------------------------------------------------------------------------|
G|----------???????????????????????????????????????????????????--------------|
D|---------------------------------------------------------------------------|
A|---------------------------------------------------------------------------|
E|---------------------------------------------------------------------------|



  09:03
e|---------------------------------------------------------------------------|
B|---------------------------------------------------------------------------|
G|---------------------------------------------------------------------------|
D|--9-11fb~~~~br-----9-9-9-8--h9-9-9-8--h9-9-9-8-9----8-9-8h9-9-9-8----------|
A|---------------------------------------------------------------------------|
E|---------------------------------------------------------------------------|




e|---------------------------------------------------------------------------|
B|---------------------------------------------------------------------------|
G|---------------------------------------------------------------------------|
D|--h9-9-9-8---9-----------------------9-9-9-8---9-9-9-8--h9-9-9-8---9-------|
A|---------------11-9-11~~---------------------------------------------11-9--|
E|------------------------h11p9--7~------------------------------------------|



   *?????? = beyond my skill level.  Feel free to edit these parts, please!*
e|---------------------------------------------------------------------------|
B|---------------------------------------------------------------------------|
G|-----------------------------------------------------?????????????---------|
D|--9-9-9-8--h9-9-9-8--h9-9-8-6-4h6~~-----??????-----------------------------|
A|---------------------------------------------------------------------------|
E|---------------------------------------------------------------------------|



  09:28
e|----------6---6h7p6-------------6h7p6--------6h7----------------------6--7-|
B|------7-------------h9-9--9-9---------h9-9-9-----h9-9-9------9----9--------|
G|--------8---8---------------------------------------------8-----8---8------|
D|--6h8----------------------------------------------------------------------|
A|---------------------------------------------------------------------------|
E|---------------------------------------------------------------------------|



  
   *?????? = beyond my skill level.  Feel free to edit these parts, please!*
e|--6h7p6---6-4--------------------------------------------------------------|
B|--------7-----4------------------------------------------------------------|
G|-------------------???????????????????????????????????????????????---------|
D|---------------------------------------------------------------------------|
A|---------------------------------------------------------------------------|
E|---------------------------------------------------------------------------|



  09:43
e|-----------------------14---------------------------14---------------------|
B|-------14-14--14fb~~14----14fb~~r--12-------12h14fb----14fbr12-------------|
G|--//13--------------------------------14-----------------------13----------|
D|---------------------------------------------------------------------------|
A|---------------------------------------------------------------------------|
E|---------------------------------------------------------------------------|



                                 ( pre bend release  )
e|--------------14-------14fb~~~~-14~~--14~~--14-14~~------------------------|
B|--12h14--14fb----14p12-----------------------------------------------------|
G|---------------------------------------------------------------------------|
D|---------------------------------------------------------------------------|
A|---------------------------------------------------------------------------|
E|---------------------------------------------------------------------------|




e|-----------------14------------------------------14------------------------|
B|------12h14fb~~~~~~~fb14~~br-p12-------12-14fb~~~~~~~fb14r12---------------|
G|--13-----------------------------13--------------------------13------------|
D|---------------------------------------------------------------------------|
A|---------------------------------------------------------------------------|
E|---------------------------------------------------------------------------|




e|-----15hb~~~~(15~15~15~~~~15~~~~15~~15~~15~15~)br--------------------------|
B|--14-----------------------------------------------------------------------|
G|---------------------------------------------------------------------------|
D|---------------------------------------------------------------------------|
A|---------------------------------------------------------------------------|
E|---------------------------------------------------------------------------|




e|------------15~~---14------------------------------14----------------------|
B|-----12h14--14fb~~----fb14~br~p12------12h14-14fb~~~~~fb14br-p12-----------|
G|--13------------------------------13-----------------------------13--------|
D|---------------------------------------------------------------------------|
A|---------------------------------------------------------------------------|
E|---------------------------------------------------------------------------|




e|-----15fb~~~-(15~15~15~~~~15~~~~15)br~-----16--18fb-br---------------------|
B|--12---------------------------------------------------19------------------|
G|----------------------------------------------------------16~--13~---------|
D|---------------------------------------------------------------------------|
A|---------------------------------------------------------------------------|
E|---------------------------------------------------------------------------|




e|--16-18fbr-18----------------19fbr-19-18-----------------------------------|
B|--------------19-------------------------19-16-19fb~~19fbr16---------------|
G|------------------16~~-13--------------------------------------------------|
D|---------------------------------------------------------------------------|
A|---------------------------------------------------------------------------|
E|---------------------------------------------------------------------------|




e|-------------------------------18fbr~~--------------18fbr------------------|
B|--14fb~~-14fbr-p12----------16--------19-------------------19--------------|
G|-------------------13---------------------16-----16------------16----------|
D|----------------------------------------------18---------------------------|
A|---------------------------------------------------------------------------|
E|---------------------------------------------------------------------------|




e|------18h19--19fb---19-19--18\---14----14h16~~16~~16~16~16\----------------|
B|--19--------------------------------16-------------------------------------|
G|---------------------------------------------------------------------------|
D|---------------------------------------------------------------------------|
A|---------------------------------------------------------------------------|
E|-------------------------------------------(slide up n down)-/16\----------|


 
  10:34       ( killswitch - x7 fast then x3 slower )
e|---------------------------------------------------------------------------|
B|---------------------------------------------------------------------------|
G|---------------------------------------------------------------------------|
D|--9~~~~~~~~--X-X-X-X-X-X-X----X----X----X----------------------------------|
A|---------------------------------------------------------------------------|
E|---------------------------------------------------------------------------|



            ( 11x notes while in full-bend )
e|---------------------------------------------------------------------------|
B|---------------------------------------------------------------------------|
G|----------------------------------------------------------13--11/13~-------|
D|--11fb~~~~11--11--11--11--11--11--11--11--11--11~~~~-11--------------------|
A|---------------------------------------------------------------------------|
E|---------------------------------------------------------------------------|




e|---------------------------------------------------------------------------|
B|---------------12h14--14h16------------------------14h16-16----------------|
G|--13--15--16-------------------16-15---------15h16----------16-15----------|
D|-------------------------------------16~--16----------------------16~------|
A|---------------------------------------------------------------------------|
E|---------------------------------------------------------------------------|




e|---------------------------------------------------------------------------|
B|--------14/16~-------------------------14h16-16----------------------------|
G|--15-16----------16-15-----------15h16-----------16--15--13~~--------------|
D|-----------------------16~~---16-------------------------------------------|
A|---------------------------------------------------------------------------|
E|---------------------------------------------------------------------------|



  10:54
e|---------------------------------------------------------------------------|
B|----------16-16-16----------------------------16-16-16---------------------|
G|--15--16------------16--15--13~-------15--16------------16--15--13~--------|
D|---------------------------------------------------------------------------|
A|---------------------------------------------------------------------------|
E|---------------------------------------------------------------------------|




e|---------------------------------------------------------------------------|
B|----------16-16-16---------------------------------------------------------|
G|--15--16------------16--15--13~~--13-13-13~~\------------------------------|
D|---------------------------------------------------------------------------|
A|-----------------------------------------------( slide up then down)-------|
E|---------------------------------------------------------------------------|




e|---------------------------------------------------------------------------|
B|---------------------------------------------------------------------------|
G|--/15-15-15-15--13~~-13~~\------/15-15-15-15-hb15r--13~~--13~~-------------|
D|---------------------------------------------------------------------------|
A|---------------------------------------------------------------------------|
E|---------------------------------------------------------------------------|




e|---------------------------------------------------------------------------|
B|---------------------------16~~-16~~-16-16-16-16~16~~----------------------|
G|--/15-15-15-15-hb15r--13---------------------------------------------------|
D|---------------------------------------------------------------------------|
A|---------------------------------------------------------------------------|
E|---------------------------------------------------------------------------|




e|---------------------------------------------------------------------------|
B|---------------------------------------------------------------------------|
G|--/15-15-15-15-hb15r--13~~~---15-15-15-15-hb15r--13~~--13------------------|
D|---------------------------------------------------------------------------|
A|---------------------------------------------------------------------------|
E|---------------------------------------------------------------------------|




e|---------------------------------------------------------------------------|
B|---16-16-16---16~~-16~~-16~~-16~~-16-16\------/16--14----------------------|
G|-------------------------------------------------------16--15--13----------|
D|---------------------------------------------------------------------------|
A|---------------------------------------------------------------------------|
E|---------------------------------------------------------------------------|




e|---------------------------------------------------------------------------|
B|-16h17--16-14--------------16-14---------------------17-16-----------------|
G|--------------16-15-13-----------16-15-13------------------16----16-15-----|
D|------------------------------------------13------16----------18-------18--|
A|---------------------------------------------------------------------------|
E|---------------------------------------------------------------------------|




e|----------------------------------11---------------11----------------------|
B|-----16------------------------12----14-12-11---------14-12-11hbr----12----|
G|--16----16-15-13-11----11---------------------13------------------13-------|
D|--------------------13-----------------------------------------------------|
A|---------------------------------------------------------------------------|
E|---------------------------------------------------------------------------|



   *Some parts are just way too advanced for my limited skill..!!*  Sorry!
e|---------------------------------------------------------------------------|
B|-14fb-------?????????????????????????????????????????????????????????????--|
G|---------------------------------------------------------------------------|
D|---------------------------------------------------------------------------|
A|---------------------------------------------------------------------------|
E|---------------------------------------------------------------------------|



  11:55
e|---------------------------------------------------------------------------|
B|---------------------------------------------------------------------------|
G|------------------------------------------------------11-------------------|
D|--9-9-9------9-fb11~~~(br x 3)-----9~-----9-fb11(x3)-----fb11-9h11p9----9--|
A|----------11---------------------------11----------------------------11----|
E|---------------------------------------------------------------------------|




e|---------------------------------------------------------------------------|
B|---------------------------------------------------------------------------|
G|---------------------------------------------------------------------------|
D|----------------------9~~--------------------------------------------------|
A|--9h11p9-----9h11-11--------11--9-----9------------------------------------|
E|---------h11----------------------h11---h11\--7--10hb--4--6--9--7----------|




e|-----------------------7--11-----13hb~~--12h14p12\11-----------------------|
B|-----------------7--9---------9----------------------h14-------------------|
G|--------------8------------------------------------------------------------|
D|-----8--9--6---------------------------------------------------------------|
A|--6------------------------------------------------------------------------|
E|---------------------------------------------------------------------------|




e|---------------------------------------------------------------------------|
B|--14/16~~--19--16-16-16--16~~~-----??????????????--------------------------|
G|---------------------------------------------------------------------------|
D|---------------------------------------------------------------------------|
A|---------------------------------------------------------------------------|
E|---------------------------------------------------------------------------|




  12:15
e|----------------------------------------------------------------14---------|
B|-------------------------------------------------12----12--14fb------------|
G|------------------------------------13----/13~~-----13---------------------|
D|--9~-----------------(9)(11)-11/13-----11----------------------------------|
A|-----11-9-----(9)(11)------------------------------------------------------|
E|----------11---------------------------------------------------------------|




e|---------------------------------------------14---14---14------------16----|
B|--14fbrp12h14p12--------12--14p12--14fb~~~--14hb-14hb-14hb\----14/16----16-|
G|-----------------13--------------------------------------------------------|
D|---------------------------------------------------------------------------|
A|---------------------------------------------------------------------------|
E|---------------------------------------------------------------------------|




e|--14/16-16-16---14/16-16-16---19fb~-19-18-16-------------------------------|
B|---------------------------------------------19-19-19fbr-------------------|
G|---------------------------------------------------------16~~~-------------|
D|---------------------------------------------------------------------------|
A|---------------------------------------------------------------------------|
E|---------------------------------------------------------------------------|



  12:27
e|---------------------------------------------------------------------------|
B|--19fbr--------19fbr-19--------19fbr--------19fbr-19---------19fb-19-------|
G|--------16~~------------16~~---------16~~------------16~~------------16~---|
D|---------------------------------------------------------------------------|
A|---------------------------------------------------------------------------|
E|---------------------------------------------------------------------------|




e|------16--19--19fb~~~-(3x bends)--19-(17)h18~---16~-14~--------------------|
B|--16----------------------------------------------------16~-14~------------|
G|----------------------------------------------------------------16~-15~----|
D|---------------------------------------------------------------------------|
A|---------------------------------------------------------------------------|
E|---------------------------------------------------------------------------|



e|---------------------------------------------------------------------------|
B|------------------------------------------------------12------14-----------|
G|--13~---------------------------------11------13----------13------16-------|
D|------16~----------------------11h13------13------13-----------------------|
A|---------/16~-~16/18-------14----------------------------------------------|
E|---------------------16~~--------------------------------------------------|




e|--------------14------16--14h16---16--14------14/16----16--14--------------|
B|--16--14--16------16----------------------16-------------------17--16--17--|
G|---------------------------------------------------------------------------|
D|---------------------------------------------------------------------------|
A|---------------------------------------------------------------------------|
E|---------------------------------------------------------------------------|




  12:46
e|---------------------------------------------------------------------------|
B|--16--12~-----------11h12p11-----------------------------------------------|
G|------------13~~--------------11---------11--------------------------------|
D|----------------------------------11h13------13--11p9--11h13---------------|
A|--------------------------------------------------------------11-----------|
E|---------------------------------------------------------------------------|




e|---------------------------------------------------------------------------|
B|---------------------------------------------------------------------------|
G|-------------------------3/4-------?????????????????????????????-----------|
D|---------------4----6------------------------------------------------------|
A|-------4--6------6----6----------------------------------------------------|
E|--4-4----------------------------------------------------------------------|







  12:56
e|---------------------------------------------------------------------------|
B|--16-17---14-16---12-14---11-12----------16-17---14-16---12-14---11--------|
G|---------------------------------13---------------------------------13-----|
D|---------------------------------------------------------------------------|
A|---------------------------------------------------------------------------|
E|---------------------------------------------------------------------------|



e|----------------------------------------------12-14-12---------------------|
B|--16-17---14-16---12-14---11-------16-14-16--------------------------------|
G|-----------------------------13--------------------------------------------|
D|---------------------------------------------------------------------------|
A|---------------------------------------------------------------------------|
E|---------------------------------------------------------------------------|




e|---------------------------------------------------------------------------|
B|--16h17p16\14--16--14h16~~~--16-16-16-16-16-16-16-16-16-16-16-16---16~~~~~-|
G|---------------------------------------------------------------------------|
D|---------------------------------------------------------------------------|
A|---------------------------------------------------------------------------|
E|---------------------------------------------------------------------------|





  13:05
e|---------------------------------------------------------------------------|
B|--------------------(slow)----9--------------------------------------------|
G|--7hb~~~~----7p5p0---7hb~~-------8--11-------------------------------------|
D|----------------------------------------11br9h11------9--------------------|
A|--------------------------------------------------11------11p9-----9h11~~--|
E|---------------------------------------------------------------h11---------|




e|----------------------------------------------------------------16----15hb-|
B|-----------------------------------12\9---/16--14--------/16-16----16------|
G|-----------------------------------11\8------------16~~--------------------|
D|---------------------------------------------------------------------------|
A|--11p9---------------------------------------------------------------------|
E|-------9~--7h9---11-4--4---------------------------------------------------|



                       (all in 14 with full bend)
e|--16p14--------------------------------------------------------------------|
B|---------16--14fb~~---16-16-16-16-16-16-16-16br---14hb~~--------------------|
G|---------------------------------------------------------------------------|
D|---------------------------------------------------------------------------|
A|---------------------------------------------------------------------------|
E|---------------------------------------------------------------------------|



e|---------------------------------------------------------------------------|
B|---14fbr12--14------12-----------------------------------------------------|
G|----------------13------13--11------12-------------------------------------|
D|--------------------------------13------13--11--9--11fb--------------------|
A|---------------------------------------------------------11~~--------------|
E|---------------------------------------------------------------------------|




e|---------------------------------------------------------------------11-11-|
B|-------------------------------------------12----12~\11-11-----12-12-------|
G|--------------------------13~-13-13-13-13-----13-----------13--------------|
D|-------------(11)(13)------------------------------------------------------|
A|-(11)(13)(14)--------(11)--------------------------------------------------|
E|---------------------------------------------------------------------------|




             ...AND NOW FOR THE PART WE ALL LOVE...!!!!




  13:30
e|---------------------------------------------------------------------------|
B|--16-17-19----(<==play this 9 times)--then--16-17-19--16----17--16---------|
G|-----------16--------------------------------------------------------------|
D|---------------------------------------------------------------------------|
A|---------------------------------------------------------------------------|
E|---------------------------------------------------------------------------|



   (these parts are just easiest to improv with a mix of mostly 13's and
     throwing in the 12's to get the sound from the song.  Total of 4 beats)

e|---------------------------------------------------------------------------|
B|--12------------12----------12----------12-----------12-----------12-------|
G|--13--13--13--13--13--13--13--13--13--13--13--13---13--13--13---13--13--13-|
D|---------------------------------------------------------------------------|
A|---------------------------------------------------------------------------|
E|---------------------------------------------------------------------------|




e|---------------------------------------------------------------------------|
B|--16-17-19----(<==5 times)--16-17-19--16---16-17-19------16-17-19----------|
G|-----------16---------------------------------------16------------16--15hb-|
D|---------------------------------------------------------------------------|
A|---------------------------------------------------------------------------|
E|---------------------------------------------------------------------------|



e|---------------------------------------------------------------------------|
B|----------------12----------12----------12-----------12-----------12-------|
G|--13--13--13--13--13--13--13--13--13--13--13--13---13--13--13---13--13--13-|
D|---------------------------------------------------------------------------|
A|---------------------------------------------------------------------------|
E|---------------------------------------------------------------------------|




e|---------------------------------------16-18-19-18hb~~-pbr18~~-------------|
B|--16-17-19----(<==3 times)----16-17-19-------------------------------------|
G|-----------16--------------------------------------------------------------|
D|---------------------------------------------------------------------------|
A|---------------------------------------------------------------------------|
E|---------------------------------------------------------------------------|



  13:56
e|---------------------------------------------------------------------------|
B|---------------------------------------------------------------------------|
G|---------------------------------------------------------------------------|
D|--9----------9-------9-------9-------9----------9-------------13-13-13-13--|
A|----11-11-11---11-11---11-11---11-11---11-11-11---11-11-11-----------------|
E|---------------------------------------------------------------------------|




e|---------------------------------------------------------------------------|
B|---------------------------------------------------------------------------|
G|---------------------------------------------------------------------------|
D|--13-14-16----(<==6 times)---13-14-16--13-----13-14-16--13-----------------|
A|-----------14------------------------------------------------13hb----------|
E|---------------------------------------------------------------------------|




e|---------------------------------------------------------------------------|
B|---------------------------------------------------------------------------|
G|---------------------------------------------------------------------------|
D|-------------9-------9-------9-------9----------9-----------9--------------|
A|----11-11-11---11-11---11-11---11-11---11-11-11---11-11-11----11-11-11-----|
E|---------------------------------------------------------------------------|



e|---------------------------------------------------------------------------|
B|---------------------------------------------------------------------------|
G|---------------------------------------------16-15-------------------------|
D|--13-14-16----(<==5 times)---13-14-16--13----------16-13-------------------|
A|-----------14----------------------------------------------14--13hb~~------|
E|---------------------------------------------------------------------------|




e|---------------------------------------------------------------------------|
B|---------------------------------------------------------------------------|
G|---------------------------------------------------------------------------|
D|---------------------------------------------------------------------------|
A|--13hb~~--11---------11--9--------11---------------14--14p13--11--11~------|
E|-----------------11-----------11------9---11-------------------------------|




e|---------------------------------------------------------------------------|
B|---------------------------------------------------------------------------|
G|---------------------------------------------------------------------------|
D|---------------------------------------------------------------------------|
A|------11--9--------11-------------14-14p13--11-11------11-9-------11-------|
E|--11----------(11)-----9---11~---/------------------11-------(11)----9--11-|




e|---------------------------------------------------------------------------|
B|---------------------------------------------------------------------------|
G|---------------------------------------------------------------------------|
D|---------------------------------------------------------------------------|
A|--14--14p13--11--11~-------11--9--------11---------------------------------|
E|-----------------------11-----------11------9---11-------------------------|



  14:37
e|---------------------------------------------------------------------------|
B|---------------------------------------------------------------------------|
G|---------------------------------------------------------------------------|
D|-------------9-------9-------9-------9----------9-----------9--------------|
A|----11-11-11---11-11---11-11---11-11---11-11-11---11-11-11----11-11-11-----|
E|---------------------------------------------------------------------------|



e|---------------------------------------------------------------------------|
B|---------------------------------12----------------------------------------|
G|-----------------------------/13-----13(x30)-------------------------------|
D|--13-14-16----(<==8 times)-------------------------------------------------|
A|-----------14--------------------------------------------------------------|
E|---------------------------------------------------------------------------|




e|---------------------------------------------------------------------------|
B|--16-17-19----(<==7 times)----16-17-19--16-----------------12(few times)---|
G|-----------16---------------------------------16-16-16--13(x30)------------|
D|---------------------------------------------------------------------------|
A|---------------------------------------------------------------------------|
E|---------------------------------------------------------------------------|




e|---------------------------------------------------------------------------|
B|--16-17-19----(<==8 times)-------------------------------------------------|
G|-----------16---------------15hb-----(go to next phrase)-------------------|
D|---------------------------------------------------------------------------|
A|---------------------------------------------------------------------------|
E|---------------------------------------------------------------------------|



   (as mentioned earlier, just improv these sections to get the same feel)
e|---------------------------------------------------------------------------|
B|----------------12------12------12--12--------------12------12-------------|
G|--13--13--13--13--13--13--13--13--13--13--13--13--13--13--13--13--13--13---|
D|---------------------------------------------------------------------------|
A|---------------------------------------------------------------------------|
E|---------------------------------------------------------------------------|




e|---------------------------------------------------------------------------|
B|--16-17-19----(<==6 times)----19-19fb~~--19fb(19)br16h19-------------------|
G|-----------16--------------------------------------------18-16~~~\---------|
D|---------------------------------------------------------------------------|
A|---------------------------------------------------------------------------|
E|---------------------------------------------------------------------------|



e|---------------------------------------------------------------------------|
B|--19fb----19fb~~-(19)br-19-------------------------------------------------|
G|-------20------------------20--18fbr16h18----------------------------------|
D|------------------------------------------18------???????????????????????--|
A|---------------------------------------------------------------------------|
E|---------------------------------------------------------------------------|



  15:27
e|---------------------------------------------------------------------------|
B|-16-17-19-----(<==15 times)------------------------------------------------|
G|----------16-----------------16~~----13(x13)-\6----------------------------|
D|-------------------------------------------------6(x16)--------------------|
A|---------------------------------------------------------------------------|
E|---------------------------------------------------------------------------|




e|---------------------------------------------------------------------------|
B|---------------------------------------------------------------------------|
G|--8-9-11----(<==8 times)--------------------8-9-11---(<==8 times)----------|
D|---------9---------------9-9----6(x30)-------------9---------------11--9---|
A|---------------------------------------------------------------------------|
E|---------------------------------------------------------------------------|




e|---------------------------------------------------------------------------|
B|---------------------------------------------------------------------------|
G|-------------------------------------------8-9-11----(<==8 times)----------|
D|--6(x17)--4----------------4/6~~6-6-6-6~----------9----------------9~~-----|
A|-------------6--4----------------------------------------------------------|
E|-------------------7~~--4--------------------------------------------------|




e|---------------------------------------------------------------------------|
B|---------------------------------------------------------------------------|
G|---------------------------------------------8-9-11----(<==8 times)--------|
D|--6(x16)--6~~-4--------------6~~-4------------------9----------------------|
A|----------------(6)-(4)------------6--7------------------------------------|
E|------------------------7~---------------7~~-------------------------------|




  16:18
e|---------------------------------------------------------------------------|
B|------------16-17-19----(<==6 times)----16-17-19-19fb~~~(go nuts!!)br------|
G|--13(x30)------------16----------------------------------------------------|
D|---------------------------------------------------------------------------|
A|---------------------------------------------------------------------------|
E|-------------------------~-------------------------------------------------|




e|---------------------------------------------------------------------------|
B|--16-17-19----(<==4 times)--16-17-19-(then crazy shit I can't do)----------|
G|-----------16--------------------------------------------------------------|
D|---------------------------------------------------------------------------|
A|---------------------------------------------------------------------------|
E|-------------------------~-------------------------------------------------|



  16:38
e|---------------------------------------------------------------------------|
B|-------------16-17-19-----(<==4 times) then more crazy shit I can't do-----|
G|--13(x30)-------------16---------------------------------------------------|
D|---------------------------------------------------------------------------|
A|---------------------------------------------------------------------------|
E|-------------------------~-------------------------------------------------|




e|---------------------------------------------------------------------------|
B|-----------16-17-19----(<==3 times)---16-17-19 (more n more crazy shit)----|
G|--13(x30)-----------16-----------------------------------------------------|
D|---------------------------------------------------------------------------|
A|---------------------------------------------------------------------------|
E|-------------------------~-------------------------------------------------|




  17:03                                    (  all muted  )
e|---------------------------------------------------------------------------|
B|---------------------------------------------------------------------------|
G|--8-9-11---(x8)------------------------------------------------------------|
D|---------9--------6-6-6-6-6~~-6-6~--6-6~-(6-6-6-6-6-6-6)-6~~~--4-----------|
A|-----------------------------------------------------------------6-4-------|
E|-------------------------~-------------------------------------------7~~---|




e|---------------------------------------------------------------------------|
B|-------------------------12-12--11-11--------------------------------------|
G|--8-9-11---(x4)----8--9----------------11-11-------------------------------|
D|---------9------------------------------------9-9--7h8--6----------6~~-----|
A|-----------------------------------------------------------9--6h9----------|
E|-------------------------~-------------------------------------------------|




e|---------------------------------------------------------------------------|
B|--------------------------8-9-11---(x6)--8--9--11--9--8--------------------|
G|---------------------------------9-----------------------8hb--6--9--6------|
D|--6 (x28 - mix of mutes)---------------------------------------------------|
A|---------------------------------------------------------------------------|
E|-------------------------~-------------------------------------------------|



  17:29
e|---------------------------------------------------------------------------|
B|---------------------------------------------------------------------------|
G|---------------------------------------------------------------------------|
D|--6~~~---6-6-6--6~----4------------------------4/6--6--6~~~----------------|
A|-------------------------6--4-----------4---6------------------------------|
E|-------------------------~-----7--4--7-------------------------------------|




e|---------------------------------------------------------------------------|
B|---------------------------------------------------------------------------|
G|--8-9-11---(x4)---Then some crazy stuff again that I can't do.  *sigh*-----|
D|---------9-----------------------------------------------------------------|
A|---------------------------------------------------------------------------|
E|-------------------------~-------------------------------------------------|



  17:39
e|---------------------------------------------------------------------------|
B|---------------------------------------------------------------------------|
G|---------------------------------------------------------------------------|
D|--6---6-6--6~~--6~~--6~~--6~~---(6)(6)(6)(6)-6~~--6-6~~-6~~----------------|
A|---------------------------------------------------------------------------|
E|-------------------------~-------------------------------------------------|


 
                         * m u t e d *
e|---------------------------------------------------------------------------|
B|---------------------------------------------------------------------------|
G|--8-9-11---(x2)--------(8)(9)(11)----(x2)-----8-9-11---(x1)---8-9-11--8----|
D|---------9-----------------------(9)-----------------9---------------------|
A|---------------------------------------------------------------------------|
E|-------------------------~-------------------------------------------------|




e|---------------------------------------------------------------------------|
B|---------------------------------------------------------------------------|
G|--11-8----9-8----8-------------------------8-9-11---(x7)---8-9-11--8-------|
D|-------11-----11---9-9---6-(muted x 30)----------9-------------------9~~---|
A|---------------------------------------------------------------------------|
E|-------------------------~-------------------------------------------------|






                              B  R  I  D  G  E




  17:59
e|---------------------------------------------------------------------------|
B|---------------------------------------------------------------------------|
G|---------------------------------------------------------------------------|
D|--------6--------4~~-------------------------------------------------------|
A|-------------------------2--4--6-------------2-----------------------------|
E|--4--7-----4--7-------4-----~-----4~---2--4--------------------------------|




e|---------------------------------------------------------------------------|
B|---------------------------------------------------------------------------|
G|---------------------------------------------------------------------------|
D|--------6--------4~~--------------4--------------------------------6-------|
A|--------------------------2--4/6------6\4--2~------2--2--4-----(6)---(6)---|
E|--4--7-----4--7--------------~---------------------0--0--2--(4)------------|




e|---------------------------------------------------------------------------|
B|---------------------------------------------------------------------------|
G|---------------------------------------------------------------------------|
D|--4---------------------------------------------6-----4--------------------|
A|-----4------(4)---(6)-----(4)---------------(6)----6--4--6-----4-(4)--6----|
E|-------------------------~---(6)--7----7-(4)-------------------------------|




e|---------------------------------------------------------------------------|
B|---------------------------------------------------------------------------|
G|---------------------------------------------------------------------------|
D|--------------------------------------------6------4-----------------------|
A|------------------------------1-------4-(6)---(6)--4--6-----4-(4)--6-------|
E|--(4)-(4)--7-----(4)-6-----2----------4------------------------------------|




e|---------------------------------------------------------------------------|
B|---------------------------------------------------------------------------|
G|---------------------------------------------------------------------4--4~-|
D|---------------------------------------------------------------------4--4~-|
A|--------------------4-------------------1----(2)----1--2--1----------------|
E|--(4)-(4)--7----(4)------(4)-(4)--2-------(2)---(2)----------4~~-(4)-------|




e|---------------------------------------------------------------------------|
B|---------------------------------------------------------------------------|
G|----------------------------------4--4~~-----------------------------------|
D|----------------------------------4--4~~-----------------------------------|
A|------1-----2-----2--1-------------------------1-----2-----2--1------------|
E|--(2)---(2)---(2)------/4--4~~-(4)---------(2)---(2)---(2)------/4-4-------|





  18:37
e|---------------------------------------------------------------------------|
B|--------------7-----------12--12--12--12~-----11---------------------------|
G|-----------------8~~------9---9---9---9~~------9---------------------------|
D|--6--6--8--9--------------9---9---9---9~~------9---------------------------|
A|--------------------------7---7---7---7~------7----------------------------|
E|---------------------------------------------------------------------------|






e|---------------------------------------------------------------------------|
B|--------------7-----------14--14--14--14~-----14---------------------------|
G|-----------------8~~------11--11--11--11~-----11---------------------------|
D|--6--6--8--9--------------11--11--11--11~-----11---------------------------|
A|--------------------------9---9---9---9~~-----9----------------------------|
E|---------------------------------------------------------------------------|





  18:47
e|---------------------------------------------------------------------------|
B|--------------7-----------12--12--12--12------11--11-----------------------|
G|-----------------8~~------9---9---9---9-------9---9------------------------|
D|--6--6--8--9--------------9---9---9---9-------9---9------------------------|
A|--------------------------7---7---7---7-------7---7------------------------|
E|---------------------------------------------------------------------------|




e|---------------------------------------------------------------------------|
B|--------------7-----------12--12--12------11--11---------------------------|
G|-----------------8~~------11--11--11------11--11---------------------------|
D|--6--6--8--9--------------9---9---9-------9---9----------------------------|
A|---------------------------------------------------------------------------|
E|---------------------------------------------------------------------------|




e|----------------------------------------------------4--6-----7-----6-------|
B|-----------------------------------------4~------4--------4----------------|
G|--1--------1--------------------4--3--1-------4-----------------6-----6----|
D|-----------------------------4---------------------------------------------|
A|--------2--------2~~----4/6------------------------------------------------|
E|-----4--------4------------~-----------------------------------------------|




e|--6------4------4-------------4--------------------------------------------|
B|-------------------7--7--7~------------------------------------------------|
G|-----6------4--------------------------------------------------------------|
D|---------------------------------------------------------------------------|
A|---------------------------------------------------------------------------|
E|---------------------------------------------------------------------------|



  19:07
e|-----------------------------4-----6~~~~~~~----6------7------6------2------|
B|-----------------------4--------4(let ring)-------4------4------4------2---|
G|-----------------4-------(4)-----------------------------------------------|
D|--------6--8--6----(6)-----------------------------------------------------|
A|-----6---------------------------------------------------------------------|
E|--4-----------------------~------------------------------------------------|






e|--4------6------4------7-7-7-7--6-------7--6-------------------------------|
B|-----0------0------0---------------4----------4----------------------------|
G|-------------------------------------------------4~~-----------------------|
D|------------------------------------------------------6--------------------|
A|---------------------------------------------------------6-----------------|
E|-------------------------~----------------------------------7--6--7--9--4~-|






e|-----------7--6------------------------------------------------------------|
B|-----------------4---------------------------------------------------------|
G|--------------------4~~----------------------------------------------------|
D|--------------------------6--------------8--8~~----9/----------------------|
A|-----------------------------6--7--7/9(let ring)---------------------------|
E|--4-4-4---------------------~----------------------------------------------|





  19:27
e|----7-6-4-----------------------------------------------------------------|
B|----------4~~-------------------------------------------------------------|
G|--8-------------4---------------------------------------------------------|
D|-------------------6--------------------------6---4--4~---2--2--4---4-4-4-|
A|----------------------6--7--6--4--6~~------6------4--4~---2--2--4---4-4-4-|
E|---------------------~------------------4---------2--2~---0--0--2---2-2-2-|








That's about all I've done for now, it's a work in progress..!! 

************************************

| /   slide up
| \   slide down
| h   hammer-on
| p   pull-off
| ~   vibrato
| +   harmonic
| x   Mute note
| b   Bend
| pb  Pre-bend
| br  Bend release
| pbr Pre-bend release
| brb Bend release bend

************************************
Добавлено: 04.10.2015
Другие материалы по этой песне:
  • Аккорды и текст

Страница создана 04.10.2015
http://primanota.ru/buckethead/celery-chords.htm
Привет, Гость.
Предлагаем пройти революционный курс по гитаре.
Подарок от PrimaNota.Ru, забирай!