PrimaNota.ru - самый крупный в мире бесплатный архив песенных текстов, аккордов, табулатур и нот


Buckethead - Pike 15 - Track 1 - таба, видео

Регистрация Запомнить меня
Войти через:  Facebook Google Twitter Vk Yandex Mail.ru

Buckethead - Pike 15 - Track 1 - таба, видео

Печатать
Просмотров: 67
                                               Track 1    
                                               Pike 15                                                     
                                             Buckethead


Main Guitar - Half Step Down (D#A#F#C#G#D#)
Solo - Half Step Down (D#A#F#C#G#D#)


Main Guitar
      S S S E  E.  S S S E  E.     S S S E  E.  H           S S S E  E.  S S S E  E.     S S S E  E.  H         
D#||----------------------------|------------------------|----------------------------|------------------------|
A#||-----------0------------0---|-----------0---L--------|-----------0------------0---|-----------0---L--------|
F#||--------4------------6------|--------7---------------|--------4------------6------|--------7---------------|
C#||------0------------0--------|------0-----------------|------0------------0--------|------0-----------------|
G#||----2------------4----------|----5-------------------|----2------------4----------|----5-------------------|
D#||--3------------5------------|--7---------------------|--3------------5------------|--7---------------------|


  S S S E  E.  S S S E  E.     S S S E  E.  S S S E  E.     S S S E  E.  S S S E  E.     S S S E  E.  H         
----------------------------|----------------------------|----------------------------|------------------------|
-----------0------------0---|-----------0------------0---|-----------0------------0---|-----------0---L--------|
--------4------------6------|--------2------------4------|--------4------------6------|--------7---------------|
------0------------0--------|------0------------0--------|------0------------0--------|------0-----------------|
----2------------4----------|----0------------2----------|----2------------4----------|----5-------------------|
--3------------5------------|--2------------3------------|--3------------5------------|--7---------------------|


  S S S E  E.  H           S S S E  E.  H           S S S E  E.  S S S E  E.     S S S E  E.  H         
------------------------|------------------------|----------------------------|------------------------|
-----------0---L--------|-----------0---L--------|-----------0------------0---|-----------0---L--------|
--------7---------------|--------7---------------|--------4------------6------|--------7---------------|
------0-----------------|------0-----------------|------0------------0--------|------0-----------------|
----5-------------------|----5-------------------|----2------------4----------|----5-------------------|
--7---------------------|--7---------------------|--3------------5------------|--7---------------------|


  S S S E  E.  S S S E  E.     S S S E  E.  H           S S S E  E.  S S S E  E.     S S S E  E.  S S S E  E.   
----------------------------|------------------------|----------------------------|----------------------------|
-----------0------------0---|-----------0---L--------|-----------0------------0---|-----------0------------0---|
--------4------------6------|--------7---------------|--------4------------2------|--------4------------6------|
------0------------0--------|------0-----------------|------0------------0--------|------0------------0--------|
----2------------4----------|----5-------------------|----2------------0----------|----2------------4----------|
--3------------5------------|--7---------------------|--3------------2------------|--3------------5------------|


  S S S E  E.  H           W                   S S S E  E.  S S S E  E.     S S S E  E.  H         
------------------------|-------------------|----------------------------|------------------------|
-----------0---L--------|--L----------------|-----------0------------0---|-----------0---L--------|
--------7---------------|-------------------|--------4------------6------|--------7---------------|
------0-----------------|-------------------|------0------------0--------|------0-----------------|
----5-------------------|-------------------|----2------------4----------|----5-------------------|
--7---------------------|-------------------|--3------------5------------|--7---------------------|


| Main Guitar
|  S S S E  E.  S S S E  E.     S S S E  E.  H           S S S E  E.  S S S E  E.     S S S E  E.  S S S E  E.
|----------------------------|------------------------|----------------------------|---------------------------|
|-----------0------------0---|-----------0---L--------|-----------0------------0---|-----------0------------0--|
|--------4------------6------|--------7---------------|--------4------------6------|--------2------------4-----|
|------0------------0--------|------0-----------------|------0------------0--------|------0------------0-------|
|----2------------4----------|----5-------------------|----2------------4----------|----0------------2---------|
|--3------------5------------|--7---------------------|--3------------5------------|--2------------3-----------|
|
| Solo
|  S  H        E   E    E  S    S E.   S  E  H     S     S   Q.    T   T  S S  E   E.  S    S Q.     E  S Q.  
|----14--------L--12p--10--9-|--L-9---10p-9--L--------|----------------------------------|---------------------|
|----------------------------|--------------------10h-|--7h-10-----7h-10p-7-7s-5s--3---3-|--L-3----------------|
|----------------------------|------------------------|----------------------------------|-----------6--6-L----|
|----------------------------|------------------------|----------------------------------|---------------------|
|----------------------------|------------------------|----------------------------------|---------------------|
|----------------------------|------------------------|----------------------------------|---------------------|


| Main Guitar
|  S S S E  E.  S S S E  E.     S S S E  E.  H           S S S E  E.  H           S S S E  E.  H         
|----------------------------|------------------------|------------------------|------------------------|
|-----------0------------0---|-----------0---L--------|-----------0---L--------|-----------0---L--------|
|--------4------------6------|--------7---------------|--------7---------------|--------7---------------|
|------0------------0--------|------0-----------------|------0-----------------|------0-----------------|
|----2------------4----------|----5-------------------|----5-------------------|----5-------------------|
|--3------------5------------|--7---------------------|--7---------------------|--7---------------------|
|
| Solo
|  S  Q.   T   T  S S  E.   E.     S E.  H.           S  E   E   E   E   S  Q.       S  E   E   E   E   S  Q.
|-------------------------------|----7---L---------|--------------------14--L----|---L-----------------12--L---|
|----10----7h-10p-7-7s-5s---7---|--L---------------|----12--14--15--12-----------|-----12--14--15--12----------|
|--L----------------------------|------------------|-----------------------------|-----------------------------|
|-------------------------------|------------------|-----------------------------|-----------------------------|
|-------------------------------|------------------|-----------------------------|-----------------------------|
|-------------------------------|------------------|-----------------------------|-----------------------------|


| Main Guitar
|  S S S E  E.  S S S E  E.     S S S E  E.  H           S S S E  E.  S S S E  E.    
|----------------------------|------------------------|----------------------------|
|-----------0------------0---|-----------0---L--------|-----------0------------0---|
|--------4------------6------|--------7---------------|--------4------------6------|
|------0------------0--------|------0-----------------|------0------------0--------|
|----2------------4----------|----5-------------------|----2------------4----------|
|--3------------5------------|--7---------------------|--3------------5------------|
|
| Solo
|   S  E   E   E   E   Q     E.      S  S   S   H.      S     S  E    E   E   E   E   E   E.   
|---L-----------------14----15---|---L-14h-15p-14---------|-----------------------------------|
|-----12--14--15--12-------------|------------------------|-----14p--12-----------------------|
|--------------------------------|---------------------11-|---L----------11--14--14--12--12---|
|--------------------------------|------------------------|-----------------------------------|
|--------------------------------|------------------------|-----------------------------------|
|--------------------------------|------------------------|-----------------------------------|


| Main Guitar
| S S S E  E.  H            S S S E  E.  S S S E  E.     S S S E  E.  S S S E  E.    
|------------------------|----------------------------|----------------------------|
|-----------0---L--------|-----------0------------0---|-----------0------------0---|
|--------7---------------|--------4------------2------|--------4------------6------|
|------0-----------------|------0------------0--------|------0------------0--------|
|----5-------------------|----2------------0----------|----2------------4----------|
|--7---------------------|--3------------2------------|--3------------5------------|
|
| Solo
|   S   S   E   Q     S  S  S   S  Q      S  S  E   S  E.   T   T   E.   E   E       E   E   S   S  E   E   Q. 
|-------------------------------------|------------------------------------------|-----------------------------|
|-------------------------------------|------------------------------------------|-----------------------------|
|--12h-14p-12--11---------------------|------------------------------------------|-----------------------------|
|--------------------12-14-14s-16--L--|------------14-16---14h-16p-14---12--12p--|--11--11--12p-11-------------|
|-------------------------------------|--14-16-17--------------------------------|-----------------14--12--14--|
|-------------------------------------|------------------------------------------|-----------------------------|


| Main Guitar
|  S S S E  E.  H           W                   W                  
|------------------------|-------------------|-------------------||
|-----------0---L--------|--L----------------|--L----------------||
|--------7---------------|-------------------|-------------------||
|------0-----------------|-------------------|-------------------||
|----5-------------------|-------------------|-------------------||
|--7---------------------|-------------------|-------------------||
|
| Solo
|   S   S   E   H.            
|----------------------------|---------------|---------------||
|----------------------------|---------------|---------------||
|----------------------------|---------------|---------------||
|--12h-14p-12----------------|---------------|---------------||
|--------------14------------|---------------|---------------||
|----------------------------|---------------|---------------||




Duration Legend
---------------
W - whole
H - half
Q - quarter
E - 8th
S - 16th
T - 32nd
X - 64th
. - note dotted
|-n-|  - n-tuplets


Tablature Legend
----------------
L - tied note
x - dead note
g - grace note
(n) - ghost note
> - accentuded note
NH - natural harmonic
AH - artificial harmonic
TH - tapped harmonic
SH - semi harmonic
PH - pitch harmonic
h - hammer on
p - pull off
b - bend
br - bendRelease
pb - preBend
pbr - preBendRelease
brb - bendReleaseBend
\n/ - tremolo bar dip
\n - tremolo bar dive
-/n - tremolo bar Release up
/n\ - tremolo bar inverted dip
/n - tremolo bar return
-\n - tremolo bar Release down
S - shift slide
s - legato slide
/ -  slide into from below or out of upwards
\ -  slide into from above or out of downwards
~ - vibrato
W - wide vibrato
tr - trill
TP - tremolo picking
T - tapping
S - slap
P - pop
< - fade in
^ - brush up
v - brush down
Добавлено: 20.02.2016
Другие материалы по этой песне:

Страница создана 20.02.2016
http://primanota.ru/buckethead/pike-15-track-1-chords.htm
Привет, Гость.
Предлагаем пройти революционный курс по гитаре.
Подарок от PrimaNota.Ru, забирай!