PrimaNota.ru - самый крупный в мире бесплатный архив песенных текстов, аккордов, табулатур и нот


Buckethead - Pathless Road - таба, видео

Регистрация Запомнить меня
Войти через:  Facebook Google Twitter Vk Yandex Mail.ru

Buckethead - Pathless Road - таба, видео

Печатать
Просмотров: 69
-------------------------------------------------------------------------------
                             Pathless Road - Buckethead
-------------------------------------------------------------------------------
Tabbed by: DropDeee
E-mail: westcoastflat77@hotmail.com

Tuning: Half-step down...  as always :)

(INTRO)

e|---------------------------------------------------------------------------|
B|------5-------------4-----------2---------2--------------------------------|
G|--------6\---------4---------4----2-----4---2---------   FIRST TIME   -----|
D|--6--6-------------------2----------2---------2----------------------------|
A|--4--------------2-------0-------------------------------------------------|
E|---------------------------------------------------------------------------|

e|---------------------------------------------------------------------------|
B|------5-------------4-----------2---------2--------------------------------|
G|--------6\---------4---------4----2-----4---2---------   SECOND TIME   ----|
D|--6--6-------------------2----------2--------------------------------------|
A|--4--------------2-------0-------------------------------------------------|
E|---------------------------------------------------------------------------|



  00:16

e|----------------------7-7h9~~----------------------------------------------|
B|--/7~--5--7/9~~-----9---------9\7------------------------------------------|
G|----------------------------------9-8--------------------------------------|
D|--------------------------------------9/11---------------------------------|
A|-------------------------------------------11\7----------------------------|
E|---------------------------------------------------------------------------|

e|-------------11-12-9----11-12----------------------------------------------|
B|---9h12p9---------------------12----12----12h14p12-------------------------|
G|---------------------------------------13----------11\9--------------------|
D|---------------------------------------------------------------------------|
A|---------------------------------------------------------------------------|
E|---------------------------------------------------------------------------|

e|-----11-12-----16\14----14-12h14-12----------------------------------------|
B|---9-----------------17-------------14-14~~~-------------------------------|
G|---------------------------------------------------------------------------|
D|---------------------------------------------------------------------------|
A|---------------------------------------------------------------------------|
E|---------------------------------------------------------------------------|


  00:41


e|---11h12-11----------------------------------------------------------------|
B|------------12-------------------------------------------------------------|
G|---------------11/13~---11\9/11/13/14\13-----------------------------------|
D|-----------------------------------------11--------------------------------|
A|---------------------------------------------------------------------------|
E|---------------------------------------------------------------------------|

e|---11h12--11\9--12--11-----11-11--12---------------------------------------|
B|------------------------------------12/14----------------------------------|
G|---------------------------------------------------------------------------|
D|---------------------------------------------------------------------------|
A|---------------------------------------------------------------------------|
E|---------------------------------------------------------------------------|

e|------16-----21\19----17---------------16----21\19----19-21---21-20--------|
B|---14--------------21----17---------14-------------21----------------------|
G|---------------------------------------------------------------------------|
D|---------------------------------------------------------------------------|
A|---------------------------------------------------------------------------|
E|---------------------------------------------------------------------------|


  01:07


e|-----(4)-----9\7-7--------------------7h9--11--12-9\7--7h9-----------------|
B|--(5)------5-------7\5------------7\9----------------------9---------------|
G|----------------------------6h9p6----------------------------9-------------|
D|---------------------------------------------------------------------------|
A|---------------------------------------------------------------------------|
E|---------------------------------------------------------------------------|

e|---------------------------------------------------------------------------|
B|-------------------------------7-7/9---------------------------------------|
G|-----9\8-6---9-8\6-----9-8--9----------9\8-6---9-8\6-----------------------|
D|-9-----------------9---------------------------------9---------------------|
A|--------------------------------------------------------9----9h11~~h12p11--|
E|----------------------------------------------------------12---------------|

e|---------------------------------------------------------------------------|
B|---------------------------------------------------------------------------|
G|--9-8----------------------------11-9-8-----------8h9-8h9~p8---------------|
D|--------9-9----9-9/11---------------------9-9----------------11------------|
A|---------------------------------------------------------------------------|
E|---------------------------------------------------------------------------|

e|---------------------------------------------------------------------------|
B|--------------------------------------------------12/14-14-\12-------------|
G|--9-8----------------------------11-9-8------------------------14-13-------|
D|--------9-9----9-9/11------------------------------------------------------|
A|---------------------------------------------------------------------------|
E|---------------------------------------------------------------------------|


  02:01


e|--14/16~~---14\12-12-19/21~~-----16p14-12-11-------------------------------|
B|---------------------------------------------12----------------------------|
G|------------------------------------------------13-11-9-11/13--------------|
D|---------------------------------------------------------------------------|
A|---------------------------------------------------------------------------|
E|---------------------------------------------------------------------------|


e|-----------12-14-12----16\14~--12h14p12-11b12r11---------------------------|
B|--12h14h16---------------------------------------14-14~~-------------------|
G|---------------------------------------------------------------------------|
D|---------------------------------------------------------------------------|
A|---------------------------------------------------------------------------|
E|---------------------------------------------------------------------------|

e|-------------------------------------------12p11-11-11~--11-12-12~~--------|
B|---------------------------------------------------------------------------|
G|--11b13r11-9-8--------12p9-12/14-------------------------------------------|
D|---------------------------------------------------------------------------|
A|---------------------------------------------------------------------------|
E|---------------------------------------------------------------------------|

e|--14-12p11-11~-11~-11~---12-12--------16-16-16-14-12-11~\7-7----12/14-12~--|
B|---------------------------------------------------------------------------|
G|---------------------------------------------------------------------------|
D|---------------------------------------------------------------------------|
A|---------------------------------------------------------------------------|
E|---------------------------------------------------------------------------|

e|--11-11-11\9---------------------------------------------------------------|
B|-------------12-12~/14-----------------------------------------------------|
G|-----------------------13\11-10--8-8-9-9/11h12~----------------------------|
D|---------------------------------------------------------------------------|
A|---------------------------------------------------------------------------|
E|---------------------------------------------------------------------------|


  02:54


e|---------------------------------------------------------------------------|
B|----------------------9\5--------10~~--------------------------------------|
G|--9\8---------9\8/9~-------------9\8---------------------------------------|
D|------9/11~--------------------------9/11--------(9)----9/11-9\7-6---------|
A|------------------------------------------9\7-6-------7--------------------|
E|---------------------------------------------------------------------------|

e|---------------------------------------------------------------------------|
B|---------------------------------------------------------------------------|
G|---------------------------------------------------------------------------|
D|--6/7h9p7~\6--6h7p6---4\2--4/6~7p6-----6/7h9p7~\6--------------------------|
A|--------------------------------------------------7--6/7-7~----------------|
E|---------------------------------------------------------------------------|

e|---------------------------------------------------------------------------|
B|---------------------------------------------------------------------------|
G|---------------------------------------------------------------------------|
D|---------------------------------------------------------------------7/11--|
A|--7-7-7-7--7-6-6h7------------------------9/11--9\7-6--(6)(6)-6/7-7--------|
E|--------------------7-7---4-7--7-4--7/9------------------------------------|

e|--------------------------------------14\12-11-9-7----------------14/16~~--|
B|-----------12-9-12/14------------------------------7h9~7-------12----------|
G|-----------------------11/13~~-11x-----------------------7/11--------------|
D|--11h13h14-----------------------------------------------------------------|
A|---------------------------------------------------------------------------|
E|---------------------------------------------------------------------------|

e|--15b16r15--13-14b15r14p12-------------------------------------------------|
B|--13-----------------------14-12h14~~~\------------------------------------|
G|---------------------------------------------------------------------------|
D|---------------------------------------------------------------------------|
A|---------------------------------------------------------------------------|
E|---------------------------------------------------------------------------|

I'm adding more as I get time to relax with a coffee and my Buckethead signature Gibson :)  


Long live the Bucket  :)

************************************

| /   slide up
| \   slide down
| h   hammer-on
| p   pull-off
| ~   vibrato
| +   harmonic
| x   Mute note
| b   Bend
| pb  Pre-bend
| br  Bend release
| pbr Pre-bend release
| brb Bend release bend

************************************
Добавлено: 04.10.2015
Другие материалы по этой песне:
  • Аккорды и текст

Страница создана 04.10.2015
http://primanota.ru/buckethead/pathless-road-chords.htm
Привет, Гость.
Предлагаем пройти революционный курс по гитаре.
Подарок от PrimaNota.Ru, забирай!