PrimaNota.ru - самый крупный в мире бесплатный архив песенных текстов, аккордов, табулатур и нот


Buckethead - Ghosts Upstairs - таба, видео

Регистрация Запомнить меня
Войти через:  Facebook Google Twitter Vk Yandex Mail.ru

Buckethead - Ghosts Upstairs - таба, видео

Печатать
Просмотров: 106
                                      ¨Buckethead¨

                                    _Ghosts Upstairs_


Album: 'Acoustic Shards'
Tuning: Half Step Down

my cover to give you an idea of how it sounds
http://www.youtube.com/watch?v=TqDhbxgaiJg
(what i tabbed isn't 100% accurate)

A. intro (corrected thx to ledzeplin and changed position)
----------------------------------------------------------------------|
----------------------------------------------------------------------|
----------0-----------------------------0-----------------------------|
-------4---------0-------0------------4-----------0-------0-----------|
----5----------4---4---4---4---4----5-----------2---2---4---4---4-----|
--7----------5-------5-------5----7-----------3-------5-------5-------|

                                   you can also strum these parts
-----------------------------------------------------------------|
-----------------------------------------------------------------|
-------6---------------------------------------------------------|
-----4---------0-------0-----------0-------0--------0-------0~---|
---5---------4---4---4---4---4---2---2---2---2----4---4---4------|
-7---------5-------5-------5---3-------3--------5-------5--------|

repeat intro with palm mute and slight variation

B. at 0:21
repeat 4x

---------------------------|
--3---------------3--------|
--2-----2-------2---2------|
--4--4----4--5-------------|
--2------------------------|
---------------------------|

C. at 0.30
strum these chords

--0----------------|
--3----------------|
--4---2---3/-------|
--4---2---5/-------|
--2---0---5/-------|
----------3/-------|

slide the last chord up and make weird noises ^^

PLEASE RATE AND COMMENT THIS TAB!!!!
Добавлено: 11.04.2012
Другие материалы по этой песне:
  • Аккорды и текст

Страница создана 11.04.2012
http://primanota.ru/buckethead/ghosts-upstairs-chords.htm
Привет, Гость.
Предлагаем пройти революционный курс по гитаре.
Подарок от PrimaNota.Ru, забирай!