PrimaNota.ru - самый крупный в мире бесплатный архив песенных текстов, аккордов, табулатур и нот


Buckethead - Count Scapula - таба, видео

Регистрация Запомнить меня
Войти через:  Facebook Google Twitter Vk Yandex Mail.ru

Buckethead - Count Scapula - таба, видео

Печатать
Просмотров: 128
Tempo= 103bpm

Track 1
      S  S  S  S  S  S  S  S  S  S  S  S  S  S  S  S  
E||--------------------------------------------------|
B||--------------------15----------------------------|
G||-----------------14----14-15-12----------------12-|
D||-----------12-15----------------14-12-11-14-------|
A||--------12----------------------------------12----|
E||--10-13-------------------------------------------|


   S  S  S  S  S  S  S  S  S  S  S  S  S  S  S  S  
--------------------------------------------------|
--------------------------------------------------|
--------------------------------------------------|
--15-12-------------15-14-12----------------12-11-|
--------12-------12----------12----------12-------|
-----------13-15----------------15-13-12----------|


   S  S  S  S  S  S  S  S  S  S  S  S  S  S  S  S  
--------------------------------------------------|
--------------------15----------------------------|
-----------------14----14-15-12----------------12-|
-----------12-15----------------14-12-11-14-------|
--------12----------------------------------12----|
--10-13-------------------------------------------|


   S  S  S  S  S  S  S  S  S  S  S  S  S  S  S  S  
--------------------------------------------------|
--------------------------------------------------|
--------------------------------------14-13-14----|
--15-12-------------15-14-12-------------------14-|
--------12-------12-------------------------------|
-----------13-15-------------15-13-12-------------|


   S  S  S  S  S S S S S  S  S  S  S S S S  
-------------------------------------------|
-------------------------------------------|
--------------12------------------12-------|
--11-------11----------5-------11----------|
-----12-13-----------4---12-13-----------4-|
-----------------5-6-----------------5-6---|


                 |---3---|    |---3--|            
  S  S  S  S  S  E   E   E    E  E   E   S  S  S  
-------------------------------------------------|
-------------------------------------------------|
-------------12-----10-----------9---------------|
--5-------11----12------12p--10-----10-----------|
----12-13-------------------------------------12-|
----------------------------------------10-13----|


   S  S  S  S  S  S  S  S  S  S  S  S  S S  S  S  
-------------------------------------------------|
-----------15------------------------------------|
--------14----14-15-12---------------------------|
--12-15----------------14-12----------12---------|
-----------------------------13-10-13---------10-|
-----------------------------------------8-12----|


   S  S  S  S  S  S  S  S  S  S  S  S  S  S  S  S     S S E  Q    H         
--------------------------------------------------|------------------------|
-----------13-------------------------------------|------------------------|
--------12----12-14-10----------------------------|------------------------|
--10-14----------------10----------10----------12-|--15--------------------|
--------------------------12----12----------12----|------------------------|
-----------------------------13-------10-13-------|------------------------|


-----------||
-----------||
-----------||
-----------||
-----------||
-----------||




Duration Legend
---------------
W - whole
H - half
Q - quarter
E - 8th
S - 16th
T - 32nd
X - 64th
. - note dotted
|-n-|  - n-tuplets


Tablature Legend
----------------
L - tied note
x - dead note
g - grace note
(n) - ghost note
> - accentuded note
NH - natural harmonic
AH - artificial harmonic
TH - tapped harmonic
SH - semi harmonic
PH - pitch harmonic
h - hammer on
p - pull off
b - bend
br - bendRelease
pb - preBend
pbr - preBendRelease
brb - bendReleaseBend
\n/ - tremolo bar dip
\n - tremolo bar dive
-/n - tremolo bar Release up
/n\ - tremolo bar inverted dip
/n - tremolo bar return
-\n - tremolo bar Release down
S - shift slide
s - legato slide
/ -  slide into from below or out of upwards
\ -  slide into from above or out of downwards
~ - vibrato
W - wide vibrato
tr - trill
TP - tremolo picking
T - tapping
S - slap
P - pop
< - fade in
^ - brush up
v - brush down
Добавлено: 31.05.2012
Другие материалы по этой песне:

Страница создана 02.04.2012
http://primanota.ru/buckethead/count-scapula-chords.htm
Привет, Гость.
Предлагаем пройти революционный курс по гитаре.
Подарок от PrimaNota.Ru, забирай!