PrimaNota.ru - самый крупный в мире бесплатный архив песенных текстов, аккордов, табулатур и нот


Buckethead - Spokes For The Wheel Of Torment - таба, видео

Регистрация Запомнить меня
Войти через:  Facebook Google Twitter Vk Yandex Mail.ru

Buckethead - Spokes For The Wheel Of Torment - таба, видео

Печатать
Просмотров: 175
Song: Spokes For The Wheel Of Torment
Artist: Buckethead
Album: The Cuckoo Clocks Of Hell


     PM PM PM PM PM PM PM PM PM PM PM PM PM PM PM PM
     S  S  S  S  S  S  S  S  S  S  S  S  S  S  S  S
E||--------------------------------------------------|
B||--------------------------------------------------|
G||--------------------------------------------------|
D||--------------------------6--5--4--3--------------|
A||--------------6--5--4--3--------------6--5--4--3--|
E||--5--4--3--2--------------------------------------|


  PM PM PM PM PM PM PM PM PM PM PM PM PM PM PM PM
  S  S  S  S  S  S  S  S  S  S  S  S  S  S  S  S   4x
---------------------------------------------------||
---------------------------------------------------||
--------------------------------------------------*||
--------------------------------------------------*||
---------------------------------------------------||
--5--6--5--6--4--5--4--5--3--4--3--4--2--3--2--3---||


 E  S S S. E  S S S. S S S S E  S S S    E  S S S S S S S S S S E.  E.  E
---------------------------------------|-----------------------------------|
---------------------------------------|-----------------------------------|
---------------------------------------|-----------------------------------|
-------2---------2-----------------2---|-------2---------------------------|
---------------------------------------|-------------------------1---1---1-|
--0--0------0--0------5-4-3-2-0--0-----|--0--0---4-3-2-1-4-3-2-1-0---0---0-|


  T T T T T T S T T T T T T S E.  E.  E     T T T T T T S T T T T T T S
-----------------------------------------|------------------------------|
-----------------------------------------|------------------------------|
-----------------------------------------|------------------------------|
-----------------------------------------|------------------------------|
--1-1-1-1-1-1---1-1-1-1-1-1---1---1---1--|--1-1-1-1-1-1---1-1-1-1-1-1---|
--0-0-0-0-0-0---0-0-0-0-0-0---0---0---0--|--0-0-0-0-0-0---0-0-0-0-0-0---|


    S  T  S  T E  T. S  T  S  T E  T. E  S S.
|---------------------------------------------|
|---------------------------------------------|
|*--------------------------------------------|
|*--------------------------------------------|
|--------------3--L-------------3--L----------|
|---3h-4p-3h-4-------3h-4p-3h-4-------2--4-L--|


  S  T  S  T E  T. S  T  S  T E  T. E  E  T      E  E  E  E  E  E  E  E
---------------------------------------------||--------------------------|
---------------------------------------------||--------------------------|
--------------------------------------------*||--2--1--2--1--2--7--7--7--|
--------------------------------------------*||--3--2--3--2--3--8--8--8--|
-------------3--L-------------3--L-----------||--4--3--4--3--4--9--9--9--|
--3h-4p-3h-4-------3h-4p-3h-4-------2--4--L--||--------------------------|


    E  E  E  E  E  E  E  E   9x
|----------------------------||
|----------------------------||
|*--------4-----------4-----*||
|*--------3-----------3-----*||
|---------2-----------2------||
|---0--0--1--0--0--0--1--0---||


  PM PM PM PM PM PM PM PM PM PM PM PM PM PM PM PM
  S  S  S  S  S  S  S  S  S  S  S  S  S  S  S  S
--------------------------------------------------|----||
--------------------------------------------------|----||
--------------------------------------------------|----||
--------------------------------------------------|----||
--------------------------------------------------|----||
--5--4--5--4--7--4--5--4--6--4--7--4--5--4--5--4--|----||

I take no credit for this tab, I simply took it from GP5 version. Jaguar100 did all the 
I just tabbed it in standard because I really hope someone can work out the rest of one 
my favourite Buckethead songs.


Duration Legend
---------------
W - whole
H - half
Q - quarter
E - 8th
S - 16th
T - 32nd
X - 64th
Добавлено: 23.04.2012
Другие материалы по этой песне:

Страница создана 23.04.2012
http://primanota.ru/buckethead/spokes-for-the-wheel-of-torment-chords.htm
Привет, Гость.
Предлагаем пройти революционный курс по гитаре.
Подарок от PrimaNota.Ru, забирай!