PrimaNota.ru - самый крупный в мире бесплатный архив песенных текстов, аккордов, табулатур и нот


Buckethead - Chicken And A Severed Hand - таба, видео

Регистрация Запомнить меня
Войти через:  Facebook Google Twitter Vk Yandex Mail.ru

Buckethead - Chicken And A Severed Hand - таба, видео

Печатать
Просмотров: 99
--------------------------------------------------------------|
--------------------------------------------------------------|
--------------------------------5-----------------------------|
--------5--5-----------------------5--------------------------|
--3--3--------------2--2--3--3--------------2--2--3--3--------|
--------------3--3--------------------3--3--------------------|


--------------------------------------------------------------|
--------------------------------6-----------------------------|
--------5--5-----------------------5--------------------------|
--3--3--------------2--2--3--3--------------2--2--3--3--------|
--------------3--3--------------------3--3--------------------|
--------------------------------------------------------------|


--------------------------------------------------------------|
--------------------------------------------------------------|
--------------------------------5-----------------5-----------|
--------5--5-----------------------5--------------5-----------|
--3--3--------------2--2--3--3--------------2--2--3-----------|
--------------3--3--------------------3--3--------------------|


Do those as many times as you want. I don't know the lyrics so you'll have to find those 
by yourself.
Добавлено: 21.03.2012
Другие материалы по этой песне:
  • Аккорды и текст

Страница создана 21.03.2012
http://primanota.ru/buckethead/chicken-and-a-severed-hand-chords.htm
Привет, Гость.
Предлагаем пройти революционный курс по гитаре.
Подарок от PrimaNota.Ru, забирай!