PrimaNota.ru - самый крупный в мире бесплатный архив песенных текстов, аккордов, табулатур и нот


Buckethead - Cruel Reality Of Nature - таба, видео

Регистрация Запомнить меня
Войти через:  Facebook Google Twitter Vk Yandex Mail.ru

Buckethead - Cruel Reality Of Nature - таба, видео

Печатать
Просмотров: 137
0:00-0:18

E|---------------7----12-10-10-12---------8---------------------------------------|
B|------10-----6---8--12----------------8-----------------------------------------|
G|----9----9-7-----------------------10-----10-9b10r9------9-10--12--10--9-10-----|
D|-7----------------------------------------------------10--------------------10--|
A|--------------------------------------------------------------------------------|
E|--------------------------------------------------------------------------------|

0:19-0:36

E|--------------------15--17--19h20-19---------------------------------------------15-13---------|
B|-17\15-13-13--17\15------------------20-17-13-15/17--15p13-15--15b17-15-13-12-13-------17\15-15|
G|-----------------------------------------------------------------------------------------------|
D|-----------------------------------------------------------------------------------------------|
A|-----------------------------------------------------------------------------------------------|
E|-----------------------------------------------------------------------------------------------|

0:37-0:41

E|---------------------|
B|------10----------8--|
G|----9----9------7----|
D|-7---------7-5-------|
A|---------------------|
E|---------------------|

0:42-0:54

E|-12-12-10-10--7-7/8-----------------------------------------------17p15--13h15p13--|
B|-12-12-10-10--7-7/8--15p13---------------------------------17\15-------------------|
G|---------------------------14--10-9b10r9--10h12-10---------------------------------|
D|---------------------------------------------------12--10--------------------------|
A|-----------------------------------------------------------------------------------|
E|-----------------------------------------------------------------------------------|

0:55-1:14

E|----------------------------------------------------------------------------------------|
B|-------8------8------8---------------12-13-12--------17p13-15--17p13-15-13\12-12\10-10--|
G|-----5------5------5----9--7------------------14-14-------------------------------------|
D|---7------9------9-----------10-9-7-----------------------------------------------------|
A|-0--------------------------------------------------------------------------------------|
E|----------------------------------------------------------------------------------------|

1:14-1:28

E|------------------------------------------------------------12-------------12----------|
B|-12-13-12--------12-13-12-10-10h12-----------------12b13-10-------12b13-10------12b13--|
G|----------12-12--------------------12------------9--------------9-------------9--------|
D|---------------------------------------14p12h14----------------------------------------|
A|---------------------------------------------------------------------------------------|
E|---------------------------------------------------------------------------------------|

1:29-1:48

E|-13-13-12-12--12-10-----------12-10--------------------15-----------15-17-15h17--------|
B|-13-13-12-12--------13-12-----------13-12-----------15-----------15-------------15-15--|
G|--------------------------12--------------12-----17-----------17-----------------------|
D|----------------------------------------------15-----------14--------------------------|
A|---------------------------------------------------------------------------------------|
E|---------------------------------------------------------------------------------------|

1:49-2:02

E|-------------------------------------15-13--12-12--10p8-12-12-10-10-8-7h8-8--|
B|-17\15-13-12--h13-----17\15-13-12h13--------------------12-12-10-10-8--------|
G|------------------14---------------------------------------------------------|
D|-----------------------------------------------------------------------------|
A|-----------------------------------------------------------------------------|
E|-----------------------------------------------------------------------------|

2:02-2:16

E|-12-12-10-10--15-15-15-13-12--12-12-10-10-8-7h8-8--12-12-10-10--17-17-15-15---|
B|-12-12-10-10--15-15-15-13-12--12-12-10-10-8--------12-12-10-10--17-17-15-15---|
G|------------------------------------------------------------------------------|
D|------------------------------------------------------------------------------|
A|------------------------------------------------------------------------------|
E|------------------------------------------------------------------------------|

2:17-2:30

E|------------------------19-20-17--15--13p12--15-13-12--------------------------------------|
B|-------12-13--13h15b17----------------------------------13-15------------------------------|
G|----12--------------------------------------------------------16-----16----16----16----16--|
D|-14---------------------------------------------------------------14-----------------------|
A|------------------------------------------------------------------------17----16----14-----|
E|-------------------------------------------------------------------------------------------|

2:31-2:51

E|--------------------------15----------------------------------|
B|-------------------12-----15--15----------------8----------8--|
G|-----------------------12----------12---------5----------5----|
D|-15-14-12-----10-9-----12-------------------9----------9------|
A|----------15------------------------------7----------7--------|
E|----------------------------------------5----------5----------|

2:51-2:59

E|------------------------------13-13-13-13-13-13-15--12--12h13---------|
B|--------------12-12-12-13-10----------------------------------13------|
G|-9-9-9-10-------------------------------------------------------------|
D|----------10----------------------------------------------------------|
A|----------------------------------------------------------------------|
E|----------------------------------------------------------------------|

3:00-3:08

E|-------------------------------13-13-12-12-12-10-10h12-12-------|
B|---------------12-12-12h13p10------------------------------10---|
G|-10-10-10-9-9---------------------------------------------------|
D|----------------------------------------------------------------|
A|----------------------------------------------------------------|
E|----------------------------------------------------------------|

3:09-3:28

E|-----------------------------19-15-15-12-12-----15--------15---|
B|-------13----13-----------13----------------15---------15------|
G|-12h14----14----14--12h14---------------------------12---------|
D|---------------------------------------------------------------|
A|---------------------------------------------------------------|
E|---------------------------------------------------------------|

3:29-3:43

E|---------------------------------|
B|-----------------------8---------|
G|-12--10--9-----------5---9-------|
D|-----------12-10---9-------------|
A|---------------------------------|
E|---------------------------------|

3:44-3:49
Добавлено: 02.04.2012
Другие материалы по этой песне:

Страница создана 02.04.2012
http://primanota.ru/buckethead/cruel-reality-of-nature-chords.htm
Привет, Гость.
Предлагаем пройти революционный курс по гитаре.
Подарок от PrimaNota.Ru, забирай!