PrimaNota.ru - самый крупный в мире бесплатный архив песенных текстов, аккордов, табулатур и нот


Buckethead - Dawn At The Deuce - таба, видео

Регистрация Запомнить меня
Войти через:  Facebook Google Twitter Vk Yandex Mail.ru

Buckethead - Dawn At The Deuce - таба, видео

Печатать
Просмотров: 275
This is just what i feel is right, any comments on others way of playing it would be 
appreciated.
repeat this first part four times
------------9--8----------------6-------------------------------------------|
------------------9------6----9---------------------------------------------|
----------------------------------------------------------------------------|
----------------------------------------------------------------------------|
----------------------------------------------------------------------------|
------6---------------------------------------------------------------------|
then:
-------------------------------------------------------------|
-------------------------------------------------------------|
-------------------------------------------------------------|
-------------------3-----------------------------------------|
------------4------4-----------------------------------------|
------2------------2-----------------------------------------|

this and the one below goes for about 4 times on the recording
----------------------------------------------------------|
----------------------------------------------------------|
------6---------------------------------------------------|
------8---------------------------------------------------|
----------------------------------------------------------|
------6---------------------------------------------------|

then:
----------------------------------------------------------|
----------------------------------------------------------|
-------5------------5--6---6-----8------6-------5---------|
-------6------------6------6-----6------6-------6---------|
----------------------------------------------------------|
-------4------------4------4-----4------4-------4---------|


if u know the song fairly well u can figure it out from these chords, of course not all 
it but the basic gist of it. and next is the slow break down part:

--------------------------------------------------------------------------------|
---------------1----------------------------------------------------------------|
-------------1---1---------------1--------------------------1-------------------|
----------3--------3-----------3-------------------------3-----3-------3--------|
---1---4-------------4---1---4------------------------4----------------4--------|
---------------------------------------------------2-------------------2--------|


that goes maybe 4 times or 6 not sure which until the solo which i hate to say im not 
but the rhythm is for that is:

---------------------------------------------------------------------------|
---------------------------------------------------------------------------|
------6------6------6----6----6------5---5-----3---------------------------|
------8------8------8----8----8------6---6-----4---------------------------|
---------------------------------------------------------------------------|
------6------6------6----6----6------4---4-----2---------------------------|

the only part i havent tabbed if u know the song was a part that i think is already 
on ultimate guitar so i figured i'd leave it out for that reason.  I'd appreciate feedback 
any suggestions as i said before im open to anything, thanks    Bucketbrain27@ultimate-guitar.com
Добавлено: 10.07.2012
Другие материалы по этой песне:

Страница создана 07.04.2012
http://primanota.ru/buckethead/dawn-at-the-deuce-chords.htm
Привет, Гость.
Предлагаем пройти революционный курс по гитаре.
Подарок от PrimaNota.Ru, забирай!