PrimaNota.ru - самый крупный в мире бесплатный архив песенных текстов, аккордов, табулатур и нот


Buckethead - Disembodied Part 2 - таба, видео

Регистрация Запомнить меня
Войти через:  Facebook Google Twitter Vk Yandex Mail.ru

Buckethead - Disembodied Part 2 - таба, видео

Печатать
Просмотров: 192
This has to be one of my all-time favorite Buckethead songs. It is so catchy. Enjoy.

Main Theme
Lead Guitar:
e  |-5--8-8p7----5--8-8p7-----------------------------|
B  |5--------8--5--------8-5--------------------------|
G  |-------------------------7-55~-4-55~--------------| x4
D  |--------------------------------------------------|
A  |--------------------------------------------------|
D  |--------------------------------------------------|

Rhythm Guitar:
e  |--------------------------------------------------|
B  |--------------------------------------------------|
G  |--------------------------------------------------| x4
D  |2-7---2-7---2-0-000---2-0-000---------------------|
A  |2-7---2-7---2-0-000---2-0-000---------------------|
D  |2-7---2-7---2-0-000---2-0-000---------------------|

Malmsteenesque Interlude. Play each riff twice and play whole section 4 times
Lead Guitar:
       x2         x2         x2        x2
e  |5-8-7-8---7-10-8-10---3-7-5-7---5-8-7-8------------|
B  |---------------------------------------------------|
G  |---------------------------------------------------| x4
D  |---------------------------------------------------|
A  |---------------------------------------------------|
D  |---------------------------------------------------|

Behind the interlude. Play Pt 1 for 2 measures, Then Pt 2 for 2 measures
Rhythm Guitar Pt I:
e  |-----------------|
B  |-----------------|
G  |-----------------| x2
D  |7---10---5---7---|
A  |7---10---5---7---|
D  |7---10---5---7---|

Rhythm Guitar Pt II:
e  |------------------------------|
B  |------------------------------|
G  |------------------------------| x2
D  |--7~------10~----5~----7~-----|
A  |--7~------10~----5~----7~-----|
D  |777~--101010~--555~--777~-----|
 PM ..     ..      ..    ..

And that is all I have gotten to so far. I hope you liked it and I'll work on getting 
rest down. Feel free to comment or email me any criticism at hildesaw88@hotmail.com.
Добавлено: 18.04.2012
Другие материалы по этой песне:

Страница создана 18.04.2012
http://primanota.ru/buckethead/disembodied-part-2-chords.htm
Привет, Гость.
Предлагаем пройти революционный курс по гитаре.
Подарок от PrimaNota.Ru, забирай!