PrimaNota.ru - самый крупный в мире бесплатный архив песенных текстов, аккордов, табулатур и нот


Buckethead - Earth Heals Herself - таба, видео

Регистрация Запомнить меня
Войти через:  Facebook Google Twitter Vk Yandex Mail.ru

Buckethead - Earth Heals Herself - таба, видео

Печатать
Просмотров: 224
I've been trying to find to find this tab everywhere so I decided to make one. I love 
music and for all of you that do too and have been searchin for this song. Well here is 
intro at least.

-------------------------------------------------------------------------------
                             Earth Heals Herself - Buckethead
-------------------------------------------------------------------------------
Tabbed by: Jake Morales
Email: N33DLEM0UTH@aol.com

Tuning:

e|---------------------------------------------------------------------------|
B|---------------------------------------------------------------------------|
G|----------------15-13-12---12-13-------------------------------------------|
D|--12--12/13-15-------------------13-----XX12--12/13-15-13-12---------------|
A|---------------------------------------------------------------------------|
E|---------------------------------------------------------------------------|

Play 2x
e|---------------------------------------------------------------------------|
B|---------------------------------------------------------------------------|
G|------------------15-13-12---12-13-----------------------------------------|
D|-XX12-12/13--17--------------------13--------XX12--12/13-15-13-12----------|
A|---------------------------------------------------------------------------|
E|---------------------------------------------------------------------------|


| /  slide up
| \  slide down
| h  hammer-on
| p  pull-off
| ~  vibrato
| +  harmonic
| x  Mute note
============================================================================
Добавлено: 09.03.2012
Другие материалы по этой песне:

Страница создана 08.03.2012
http://primanota.ru/buckethead/earth-heals-herself-chords.htm
Привет, Гость.
Предлагаем пройти революционный курс по гитаре.
Подарок от PrimaNota.Ru, забирай!