PrimaNota.ru - самый крупный в мире бесплатный архив песенных текстов, аккордов, табулатур и нот


Buckethead - Can I Have A Ride - таба, видео

Регистрация Запомнить меня
Войти через:  Facebook Google Twitter Vk Yandex Mail.ru

Buckethead - Can I Have A Ride - таба, видео

Печатать
Просмотров: 108
from the album Deli Creeps

tuning A#EADF#b

-------------------------------------------------------------------------------|
-------------------------------------------------------------------------------|
-------------4-------3-----------------------------------------------4---------|
-----2-------4-------3-------4-------2-------5-------7-------3-------4---------|
-----2-------2-2-2-2-1-1-1-1-4-------2-------5-------7-------3-------2-2-2-2---|
-----2-2-2-2-----------------4-4-4-4-2-2-2-2-5-5-5-5-7-7-7-7-3-3-3-3-----------|
p.m.   |----|  |----|  |----|  |----|  |----|  |----|   |----|  |----|  |------|

-------------------------------------------------|
-------------------------------------------------|
5-------4----------------------------------------|
5-------4-------5-------7-------3-------2--------|
3-3-3-3-2-2-2-2-5-------7-------3-------2--------|
----------------5-5-5-5-7-7-7-7-3-3-3-3-2-2-2-2--|
  |----|   |----|  |----| |----|  |----|  |------|

-------------------------------------------------------------------------------|
-------------------------------------------------------------------------------|
-------------4-------3-----------------------------------------------4---------|
-----2-------4-------3-------4-------2-------5-------7-------3-------4---------|
-----2-------2-2-2-2-1-1-1-1-4-------2-------5-------7-------3-------2-2-2-2---|
-----2-2-2-2-----------------4-4-4-4-2-2-2-2-5-5-5-5-7-7-7-7-3-3-3-3-----------|
p.m.   |----|  |----|  |----|  |----|  |----|  |----|   |----|  |----|  |------|

-------------------------------------------------|
-------------------------------------------------|
5-------4----------------------------------------|
5-------4-------5-------7-------3-------2--------|
3-3-3-3-2-2-2-2-5-------7-------3-------2--------|
----------------5-5-5-5-7-7-7-7-3-3-3-3-2-2-2-2--|
  |----|  |----|  |----| |----|  |---- |  |------|

---------------------------------------------------------------------|
---------------------------------------------------------------------|
-------------4-------3-----------------------------------------------|
-----2-------4-------3-------4-------2-------5-------7-------3-------|
-----2-------2-------1-------4-------2-------5-------7-------3-------|
-----2-----------------------4-------2-------5-------7-------3-------|

----------------------------------------------------------|
----------------------------------------------------------|
4-------5-------4-----------------------------------------|
4-------5-------4-------5-------7-------3-------2--x\-----|
2-------3-------2-------5-------7-------3-------2--x\-----|
------------------------5-------7-------3-------2--x\-----|

---------------------------------------------------------------------|
---------------------------------------------------------------------|
-------------4-------3-----------------------------------------------|
-----2-------4-------3-------4-------2-------5-------7-------3-------|
-----2-------2-------1-------4-------2-------5-------7-------3-------|
-----2-----------------------4-------2-------5-------7-------3-------|

----------------------------------------------------------|
----------------------------------------------------------|
4-------5-------4-----------------------------------------|
4-------5-------4-------5-------7-------3-------2--x\-----|
2-------3-------2-------5-------7-------3-------2--x\-----|
------------------------5-------7-------3-------2--x\-----|

-----------------------------------------------------------------------------------|
-----------------------------------------------------------------------------------|
-----------------------------------------------------------------------------------|
--------------------------------------------------------3-4-6~----3-2--------------|
--------------------------------------------------------3-4-6~----3-2--------------|
-2h3p2h3p2h3p2h3p2h3p2h3p2h3p2h3p2h3p2h3p2h3p2h3p2------3-4-6~----3-2--------------|

-----------------------------------------------|
-----------------------------------------------|
-----------------------------------------------|
---3--4--6~--3-0-------------------------------|
---3--4--6~--3-0-------------------------------|
---3--4--6~--3-0-------------------------------|

-------------4---4---6---6---8---4-------4---4---6---8h11p8---4-----------|
----------4--------------------------4------------------------------------|
--------------------------------------------------------------------------|
--------------------------------------------------------------------------|
--------------------------------------------------------------------------|
--------------------------------------------------------------------------|
slight pm |---------------------------------------------------------------|

----------------------------------------|
----------------------------------------|
----------------------------------------|
---3--4--6~--3-0------------------------|
---3--4--6~--3-0------------------------|
---3--4--6~--3-0------------------------|

-------------------------------------------------|
-------------------------------------------------|
-------------------------------------------------|
---3--4--6~--3-0---------------------------------|
---3--4--6~--3-0---------------------------------|
---3--4--6~--3-0-----------12\\\\\\\\\\\\\\\\----|

------------------------------------------------------|
------------------------------------------------------|
------------------------------------------------------|
----2--0--2--0--2~--0--0--3--2--0--x--x---------------|
----2--0--2--0--2~--0--0--3--2--0--x--x------ repeat--| 6x
----2--0--2--0--2~--0--0--3--2--0--x--x---------------|
p.m.|-------------------------------------------------|

-x-x-----------------|
-x-x-----------------|
-x-x-----------------|
-x-x-----------------|
-x-x-----------------|
-x-x-----------------|

-----------------------------|
-1~--1------3~--------3------|
-2~----2----4~------4--------|
-2~------2--5~--0h5----------|
-0~---------5~---------------| repeat 4x
-----------------------------|

------------------------------------------------------|
------------------------------------------------------|
------------------------------------------------------|
-x\---2--0--2--0--2~--0--0--3--2--0--x--x-------------|
-x\---2--0--2--0--2~--0--0--3--2--0--x--x---- repeat--| 4x
-x\---2--0--2--0--2~--0--0--3--2--0--x--x-------------|
p.m.|-------------------------------------------------|

----------------------------------------|
----------------------------------------|
----------------------------------------|
---3--4--6~--3-0------------------------|
---3--4--6~--3-0------------------------| repeat 3x
---3--4--6~--3-0------------------------|

------------------------------------------------------------------------------|
--14b17~~---16--------------------15----17------------------------------------|
--16b18~~-------x--16b16.5~~~~~------16----15~~---------------------14h16~~~--|
-------------------------------------------------17s14--14---17p14------------|
------------------------------------------------------------------------------|
------------------------------------------------------------------------------|

---------------------------------17b19-17s19-|
------------17--17~~---19p17-----------------|
---19--19------------------------------------|
---------------------------------------------|
---------------------------------------------|
---------------------------------------------|

-------------------------------------------------------18-18----|
-15~~~-----------------------15----------------14--16-----------|
--------19------------------------16---14\----------------------|
------------16s0------------------------------------------------|
----------------------------------------------------------------|
-------------------13s0s13--------------------------------------|

16b18-18-18-18~----16b18r16--15~~----15\-----------------|
---------------------------------------------------------|
---------------------------------------------------------|
---------------------------------------------------------|
---------------------------------------------------------|
---------------------------------------------------------|

------------------------------------------------------------------------------|
------------------------------------------------------------------------------|
-17-17-17s14--14-----17--17--17s12-12-----12-12-12s14--14-14s16s17--17s14-14--|
-x--x--x--x---x------x---x---x--x--x------x--x--x--x---x--x--x--x---x--x--x---|
-15-15-15s12--12-----15--15--15s10-10-----10-10-10s12--12-12s14s15--15s12-12--|
------------------------------------------------------------------------------|

-------------------------------------------|
------------------------------17-----------|
--17-17-17s14-14-----14b16~-------14b16----|
--x--x--x----------------------------------|
--15-15-15s12-12---------------------------|
-------------------------------------------|

--------------------------------------------------------------------------|
--------------------------------------------------------------------------|
--14--16--14------------------------------14--16--14--12---16--14~~---12~-|
--------------12--14--12--------------------------------------------------|
--------------------------12--14--12~~------------------------------------|
--------------------------------------------------------------------------|

--17---15~~~-----17---19---15---------22---20--|
--------------------------------17~------------|
-----------------------------------------------|
-----------------------------------------------|
-----------------------------------------------|
-----------------------------------------------|
               with kill switch

-19----17---19---15--------------------------------|
----------------------17----15---------------------|
----------------------------------17---16----------|
--------------------------------------------14~~~--|
---------------------------------------------------|
---------------------------------------------------|

------------------------------------------------------|
------------------------------------------------------|
------------------------------------------------------|
-x\---2--0--2--0--2~--0--0--3--2--0--x--x-------------|
-x\---2--0--2--0--2~--0--0--3--2--0--x--x---- repeat--| 4x
-x\---2--0--2--0--2~--0--0--3--2--0--x--x-------------|
p.m.|-------------------------------------------------|

-----------------------------|
-1~--1------3~--------3------|
-2~----2----4~------4--------|
-2~------2--5~--0h5----------|
-0~---------5~---------------| repeat 4x
-----------------------------|

----------------------------------------------|
----------------------------------------------|
----------------------------------------------|
-x\---2--0--2--0--2~--0--0--3--2--0--x--x-----|
-x\---2--0--2--0--2~--0--0--3--2--0--x--x-----| repeat till the end
-x\---2--0--2--0--2~--0--0--3--2--0--x--x-----|
p.m.|-----------------------------------------| less pm used on this last part,
improvise the riff a little bit

--------------------------------|
--------------------------------|
--------------------------------|
---3--4--6~--3-0----------------|
---3--4--6~--3-0----------------|
---3--4--6~--3-0----------------|

enjoy
Добавлено: 21.02.2012
Другие материалы по этой песне:
  • Аккорды и текст

Страница создана 21.02.2012
http://primanota.ru/buckethead/can-i-have-a-ride-chords.htm
Привет, Гость.
Предлагаем пройти революционный курс по гитаре.
Подарок от PrimaNota.Ru, забирай!