PrimaNota.ru - самый крупный в мире бесплатный архив песенных текстов, аккордов, табулатур и нот


Buckethead - Cobras Head - таба, видео

Регистрация Запомнить меня
Войти через:  Facebook Google Twitter Vk Yandex Mail.ru

Buckethead - Cobras Head - таба, видео

Печатать
Просмотров: 135
-------------------------------------------------------------------------------
                SONG NAME – The Cobra's Head - Band Name - Buckethead
-------------------------------------------------------------------------------
Tabbed by: shredfest
Email: shred-fest@hotmail.co.uk

Tuning: Drop A#
                                                                                  
                                                                        X 7
 
|--------------------------------------------------------------------------|
|--------------------------------------------------------------------------|
|--------------------------------------------------------------------------|
|--------------------------------------------------------------------------|
|--------------------------------------------------------------------------|
|--0------3------7------3------0------2------6------2------6------2--------|



On the 8th time play…

|--------------------------------------------|
|--------------------------------------------|
|--------------------------------------------|
|--------------------------------------------|
|--------------------------------------------|
|--0------3------7------3------0------2-----6|


                                                                       X 8

|--------------------------------------------------------------------------|
|--------------------------------------------------------------------------|
|--------------------------------------------------------------------------|
|--------------------------------------------------------------------------|
|--------------------------------------------------------------------------|
|--0------3------7------3------0------2------6------2------6------2--------|



                                                   X 4

|-----------------------------------------------------|
|-----------------------------------------------------|
|-----------------------------------------------------|
|-----------------------------------------------------|
|-----------6---------6--------5---------4------------|
|--0----3--------8---------8--------7---------6----0--|



                                                                      X 3

|--------------------------------------------------------------------------|
|--------------------------------------------------------------------------|
|--------------------------------------------------------------------------|
|--------------------------------------------------------------------------|
|--------------------------------------------------------------------------|
|--0------3------7------3------0------2------6------2------6------2--------|









On the 4th time play…

|-------------------------------------------|
|-------------------------------------------|
|-------------------------------------------|
|-------------------------------------------|
|-------------------------------------------|
|--0------3------7------3------0------2----6|







                                     X 12

|--------------------------------------------|
|--------------------------------------------|
|--------------------------------------------|
|----------------------0----h1---------------|
|--2----3----2---h3---------------2----------|
|---------------------------------------3----|  




I'm not sure if I got this part is right.

This part is all tremolo picking.
   

                                X 8
|----------------------------------|
|--8-7-6-5-8-7-6-5-8-7-6-5-8-7-6-5-|
|----------------------------------|
|----------------------------------|
|----------------------------------|
|----------------------------------|



                                                                        X 8
|--------------------------------------------------------------------------|
|--------------------------------------------------------------------------|
|--------------------------------------------------------------------------|
|--------------------------------------------------------------------------|
|--------------------------------------------------------------------------|
|--0------3------7------3------0------2------6------2------6------2--------|






                                                   X 6

|-----------------------------------------------------|
|-----------------------------------------------------|
|-----------------------------------------------------|
|-----------------------------------------------------|
|-----------6---------6--------5---------4------------|
|--0----3--------8---------8--------7---------6----0--|



                                         X 1

|-------------------------------------------|
|-------------------------------------------|
|-------------------------------------------|
|-------------------------------------------|
|-------------------------------------------|
|--0------3------7------3------0------2----6|




                                          X 8

|--------------------------------------------|
|--------------------------------------------|
|--------------------------------------------|
|----------------------0----h1---------------|
|--2----3----2---h3---------------2----------|
|---------------------------------------3----|





                                  X 16 
|-------------------------------------|
|-------------------------------------|
|-------------------------------------| Guitar 1 
|---------------------3---------------|
|-------5-5-5-5----4-----4---4-3------|    
|---0---------------------------------|
                                           Guitar 2 comes in after Guitar 1 has
                                           played its part 8 times.                                         
                                            
                                            

                                X 6
|----------------------------------|
|--8-7-6-5-8-7-6-5-8-7-6-5-8-7-6-5-|
|----------------------------------| Guitar 2  
|----------------------------------|
|----------------------------------|
|----------------------------------|





                                                                        X 8
|--------------------------------------------------------------------------|
|--------------------------------------------------------------------------|
|--------------------------------------------------------------------------|
|--------------------------------------------------------------------------|
|--------------------------------------------------------------------------|
|--0------3------7------3------0------2------6------2------6------2--------|
Добавлено: 20.05.2012
Другие материалы по этой песне:
  • Аккорды и текст

Страница создана 20.05.2012
http://primanota.ru/buckethead/cobras-head-chords.htm
Привет, Гость.
Предлагаем пройти революционный курс по гитаре.
Подарок от PrimaNota.Ru, забирай!