PrimaNota.ru - самый крупный в мире бесплатный архив песенных текстов, аккордов, табулатур и нот


Buckethead - Common Ground - таба, видео

Регистрация Запомнить меня
Войти через:  Facebook Google Twitter Vk Yandex Mail.ru

Buckethead - Common Ground - таба, видео

Печатать
Просмотров: 156
-------------------------------------------------------------------------------
        Common Ground - Thanatopsis (album: Anatomize, 2006)
                        (Buckethead, Travis Dickerson, Ramy Antoun)
-------------------------------------------------------------------------------
Tabbed by: Brad V. (black_box on /forum/index.php)


e|---------------------------------------5------------|
B|--10b13~~---5-------------5--5-------5---8b10~~~~~--|
G|------------5-------------5--5---7b8----------------|
D|--------------7-------------------------------------|
A|----------------------------------------------------|
E|-------------------8-5------------------------------|

e|-----------------------------------|
B|-----------8-----------------------|
G|--7b9~~~~~~~~9r8r7~~~~~------------|
D|-------------------------5h7~~~----|
A|-----------------------------------|
E|-----------------------------------|

e|------------------------7-7h8p7-------5~~--|
B|----------------------5---------8~~~~------|
G|----5-7b9-7-5------------------------------|
D|--7-----------7~~~-------------------------|
A|-------------------------------------------|
E|-------------------------------------------|

e|-----------------------------------------------------|
B|--------------------------------17-17h18--17~~-------|
G|-----16/19~19~~~~--17--16-17-19----------------------|
D|--14------------------------------------------19~~~~-|
A|-----------------------------------------------------|
E|-----------------------------------------------------|

e|----------------------------------------------------------------|
B|----------------------------------------------------------------|
G|-19b21~~~~-19-19~~--19b21r19-17-19b21--17--------16b17r16-------|
D|-------------------------------------------19~~-----------19-17~|
A|----------------------------------------------------------------|
E|----------------------------------------------------------------|

e|-----------17-19b20r19---------------------------------------|
B|--------17-------------17--20--------------------------------|
G|--19b21------------------------17--19b21--19-17-19---17-16~~-|
D|-------------------------------------------------------------|
A|-------------------------------------------------------------|
E|-------------------------------------------------------------|

e|----------------------------------------5---------------------|
B|--10b13~~--5--------------5--5--------5---8b10~~~~------------|
G|-----------5--------------5--5----7b8----------------19b21~~~-|
D|--------------7-----------------------------------------------|
A|--------------------------------------------------------------|
E|------------------8--5----------------------------------------|

e|--------------|-----------------------------------|
B|----5---5-----|-----------------------------------|
G|----5h6-5h6---|----5h6----------------------------|
D|--7-----------|----5----7--5----------------------|
A|--------------|-----------------5b6r5---5---------|
E|--------------|-----------------------8---8--3----|

e|--------------------------------------------------------------|
B|-----------5~~-------------------------------17---------------|
G|-5---------5~~----------8~~------16b17r16-----------19b21~~~--|
D|-7---5--7--------5--7/9------19-----------19----19------------|
A|--------------------------------------------------------------|
E|--------------------------------------------------------------|

e|-----------------------------------------------------------------------|
B|--20---------------------------------------20--20b22~(22)(22)(22)r20~~~|
G|-----19b21r19-17-19~~-17-19-19b21~--17~~~------------------------------|
D|-----------------------------------------------------------------------|
A|-----------------------------------------------------------------------|
E|-----------------------------------------------------------------------|

e|---------------------------------------------------------------------------|
B|--20b22-20--20p18-18p17-17b18r17~~~~20-----------------------20------------|
G|---------------------------------------19b21r19-17-19b21~~~~~---19b21-19~~-|
D|---------------------------------------------------------------------------|
A|---------------------------------------------------------------------------|
E|---------------------------------------------------------------------------|

e|------------------------------------------------|
B|------------------------------------------------|
G|--19-17-19-19b21r20b21~~--19b21r19-17-----17~~~-|
D|--------------------------------------19--------|
A|------------------------------------------------|
E|------------------------------------------------|

e|-------------------------------------------------------------|
B|-------------------------------------------------------------|
G|--17-16--------19b21~(21)~(21)~(21)~(21)~(21)r19-17-19-19~~~-|
D|--19----19---------------------------------------------------|
A|-------------------------------------------------------------|
E|-------------------------------------------------------------|

e|----------------------------------------------------------------------------|
B|--20------------------------------------------------------------------------|
G|-----19b21~~~-19-17-19b21r19~~~-19b21-17------------------------------------|
D|-----------------------------------------19~~~--17h19~-17-------------------|
A|-----------------------------------------------------------15h17~-15-17s19~-|
E|----------------------------------------------------------------------------|

e|----17-----------17--17-----17-----------17-------------------|
B|--------20-17~~~--------20~~---17~~~--17-----20--20b22-20-17--|
G|-17-----------------------------------------------------------|
D|--------------------------------------------------------------|
A|--------------------------------------------------------------|
E|--------------------------------------------------------------|

e|-------------------------------------------------------------|
B|---------------------20b22-20-17----------------------20-17--|
G|--19b21~~19-17---------------------19b21--19-17--------------|
D|---------------19~~-----------------------------19-----------|
A|-------------------------------------------------------------|
E|-------------------------------------------------------------|

e|--------------------------------------------------------|
B|--5--5--5--5--5~~-----------------8---------------------|
G|--5--5--5--5--5~~-------7b9~~~~~~~~~9r8r7~~~------------|
D|------------------7---------------------------5h7~~~~~--|
A|--------------------------------------------------------|
E|--------------------------------------------------------|

e|-----------------------------------------|
B|------------------17-------17b18r17~~~~--|
G|--------16--17-------17------------------|
D|--------17--19----------19---------------|
A|--19~~~----------------------------------|
E|-----------------------------------------|

e|-----------------------------------------------------------|
B|-----------20----------------------------------------------|
G|--19~~~b21----19b21~~21r19-17-19-19b21--17-19-17~~-19b21~~-|
D|-----------------------------------------------------------|
A|-----------------------------------------------------------|
E|-----------------------------------------------------------|

e|---------------------------------------------------------------------------|
B|--20-----------------------------------------------------------------------|
G|-----19b21~-19-17-19b21r19~~-17-19-17~~--16-17-16--------------------------|
D|--------------------------------------------------19-17~~-17-19------------|
A|----------------------------------------------------------------17-17~~~19-|
E|---------------------------------------------------------------------------|

e|------------------------|-----------------------------------------------------|
B|------------------------|-----------------------------------------------------|
G|-----------------------*|-17--17--17-------------19b21r19-17-19-17-19-19b21~~-|
D|-17-19~~-17-19~~-17-19--|--------------17-19~~~-------------------------------|
A|-----------------------*|-----------------------------------------------------|
E|------------------------|-----------------------------------------------------|
          repeat once        

e|------------------------------------------------------------------------------|
B|------------------------------------------------------------------------------|
G|-19b21r19-17--19-19b21-17-----------------------------------------------------|
D|--------------------------19---------------------------------------17--17-19--|
A|----------------------------------17b19r17-15-------------15-17/19------------|
E|-----------------------------------------------17---15-17---------------------|


e|--------------------------------------------------------------------------------------------|
B|------------------------------------20------------------------------------------------------|
G|--19b21r19-17--19b21-17~~~--16b17~~~~~~17r16~~--------------------17----17~-19-17-19-19b21~~|
D|-----------------------------------------------19-19---17-19-19------19---------------------|
A|--------------------------------------------------------------------------------------------|
E|--------------------------------------------------------------------------------------------|

e|-----17----17~~----17-19b20~~~------------------------------|
B|--20----20------20------------------------------------------|
G|---------------------------------19b21~-19-17~~------17-----|
D|-----------------------------------------------19-------19--|
A|------------------------------------------------------------|
E|------------------------------------------------------------|

e|--------------------------------------------------------------------------------------|
B|--------------------------------------------------------------------------------------|
G|-19-17-19b21--17-----------------17-----19b21r19~~~~b21--19b21-19-17-19-19b21--17-----|
D|------------------19--17-17-19------19--------------------------------------------19~~|
A|--------------------------------------------------------------------------------------|
E|--------------------------------------------------------------------------------------|

e|--------------------------------------------------------------------------|
B|-----------------------------------------------------------------17b18r17-|
G|--------------------------------------------------16---17---19------------|
D|------------------------------19--19--17--17h19---------------------------|
A|-17b19-17-15-17-17/19~~~~-------------------------------------------------|
E|--------------------------------------------------------------------------|

e|-------------------------------------------------------------------------------|
B|--------------------17b18------------------------------------------------------|
G|--------16--17--19----------------16b17r16--17b19r17--19b21r19--17h19p17-16----|
D|-17h19---------------------17h19--------------------------------------------19-|
A|-------------------------------------------------------------------------------|
E|-------------------------------------------------------------------------------|

e|------------------------------------------------------------|
B|------6-6-6-6p5~~----------------8---8-----8----8--8~~--10--|
G|----5---------------5---5-7-7s9~~--9---9~~----9-------------|
D|------------------7---7-------------------------------------|
A|------------------------------------------------------------|
E|------------------------------------------------------------|

e|--------------------------------------------------------------|
B|--10~~8-8-8~~6-6~~5-5~-5-----5-6--5-6-------------------------|
G|--------------------------7--------------7b9-7-5---5---5~~----|
D|-------------------------------------------------7---7-----7--|
A|--------------------------------------------------------------|
E|--------------------------------------------------------------|

e|---------------------------------------------------------|
B|-----------------------------8--8b10---------------------|
G|-----------------7b9r7-5-7b9-----------7b9r7-5--7b9--5~~-|
D|-5h7p5h7~~~~~--------------------------------------------|
A|---------------------------------------------------------|
E|---------------------------------------------------------|

e|----------------------------------------------------------|
B|----------------------------------10-----------5-5---5----|
G|-------------5-------7b9r7-5-7b9~~----7-5---7~~----7---7--|
D|-7-5---5-7-5---7~~~---------------------------------------|
A|-----7----------------------------------------------------|
E|----------------------------------------------------------|

e|------------------------------------------------------------------|
B|-5~~---5---5-----5-5---5--5-6-5-8--6-5-6-5~------------------5----|
G|-----7---7---7-------7-------------------5~------------------5----|
D|--------------------------------------------7----5h7-7-7-5-7---7--|
A|------------------------------------------------------------------|
E|------------------------------------------------------------------|

e|--------------------------------------------------------------------------|
B|-------------------------------------------------8b10r8-5-----------------|
G|--7b8--7-5-7-7b8--5--------5-----------5~~-7b9~~----------7b8r7-5-----5---|
D|---------------------7-5-7---7-----5-7----------------------------7-5---7-|
A|--------------------------------------------------------------------------|
E|--------------------------------------------------------------------------|

e|---------------------------------------------------------------------|
B|--------------5------------------------------------5-----------------|
G|--------------5------------------------------------5-----------------|
D|--5-7-7-7-5-7---7-----------------------------5-7----7--X-X-X-X-X-X--|
A|---------------------5-5b6-5-3-5-3--------3s5------------------------|
E|------------------------------------5-3-5----------------------------|

e|-------------------------------------------------------------|
B|--5~--------------8b10~~-8-5---------------------------------|
G|--5~----7b9-7-5~~------------8-7-5---5-7b8r7-5-7-5---5-7-5~~-|
D|-----7-----------------------------7---------------7---------|
A|-------------------------------------------------------------|
E|-------------------------------------------------------------|

e|--------------------------------------------------------------|
B|----------------------------------------------5-5-5-5--5~~----|
G|-19b21~~-19-17-19--19---19-17-19b21~~17-------5-5-5-5--5~~----|
D|----------------------------------------19~~~---------------7-|
A|--------------------------------------------------------------|
E|--------------------------------------------------------------|

e|-------------------------------------5----------|
B|-------8---------------5--5--------5---8b10~~~--|
G|-7b9~~~~~9r8r7~~-------5--5----7b9--------------|
D|------------------------------------------------|
A|------------------------------------------------|
E|-----------------8-5----------------------------|

e|-----------------------------------------------------------|
B|-----------------------8-----------------------------------|
G|--19b21~~------5--7b9----7-5-------7-5-7-5h7p5h7p5~~~~~~---|
D|-------------7---------------7--------------------------7--|
A|-----------------------------------------------------------|
E|-----------------------------------------------------------|

e|--------------------------------------------------------|
B|--------------------------------------------------------|
G|--19b21~(21)~(21)~(21)--19-19--17--16--17---------------|
D|------------------------------------------19------------|
A|----------------------------------------------5---------|
E|------------------------------------------------8-5--3--|

e|----------------------------------------------------------------------|
B|-----7b8r7~~-----------------------------------------7b8~~~~8r7--5----|
G|-5~~--------5~-----------5-7-7b8-7-5-7-5~~----5~~7-5----------------5-|
D|---------------7-5---5-7------------------7-5-------------------------|
A|-------------------7--------------------------------------------------|
E|----------------------------------------------------------------------|

e|-----------------------------------------------------|
B|-----------------------------------------------------|
G|-7b8~~7-5-7-7b8-7-5-7-5---5~~------------5~~~7b8~~~--|
D|------------------------7----7-5---------------------|
A|---------------------------------5~~-----------------|
E|------------------------------------8-5--------------|


| b   string bend
| r   release bend
| /   slide up
| \   slide down
| h   hammer-on
| p   pull-off
| ~   vibrato / let ring
| +   harmonic
| x   Mute note
===============================================================================
Добавлено: 27.04.2012
Другие материалы по этой песне:
  • Аккорды и текст

Страница создана 27.04.2012
http://primanota.ru/buckethead/common-ground-chords.htm
Привет, Гость.
Предлагаем пройти революционный курс по гитаре.
Подарок от PrimaNota.Ru, забирай!