PrimaNota.ru - самый крупный в мире бесплатный архив песенных текстов, аккордов, табулатур и нот


Buckethead - Checkerboard Incision - таба, видео

Регистрация Запомнить меня
Войти через:  Facebook Google Twitter Vk Yandex Mail.ru

Buckethead - Checkerboard Incision - таба, видео

Печатать
Просмотров: 149
-------------------------------------------------------------------------------
                             Checkerboard incision - buckethead
-------------------------------------------------------------------------------
Tabbed by: TheTroy
Tuning: Standard

intro
e|-----------------8---------------------------------------------------------|
B|---8h10-8------8---8-------8h10-8------8---8-------------------------------|
G|----------9-10-------10-----------9-10---9---------------------------------|
D|---------------------------------------------------------------------------|
A|-0~---------------------0~-------------------------------------------------|
E|---------------------------------------------------------------------------|

chords before chorus. (i know this isnt it but it sounds good)
e|---------------------------------------------------------------------------|
B|-10--8--6------------------------------------------------------------------|
G|-9---7--5------------------------------------------------------------------|
D|-7---5--3------------------------------------------------------------------|
A|---------------------------------------------------------------------------|
E|---------------------------------------------------------------------------|

Chorus
e|---------------------------------------------------------------------------|
B|--------------------------0-----------6666--5------------------------------|
G|--------------------------0-----------5555--4------------------------------|
D|-------5~--2h3p2-2---2h3-----------5~-3333--2------------------------------|
A|-----3---------------------------3-----------------------------------------|
E|-3h5-------------------------3h5-------------------------------------------|

bridge pt 1
e|---------------------------------------------------------------------------|
B|---------------------------------------------------------------------------|
G|---------------------------------------------------------------------------|
D|---------------------------------------------------------------------------|
A|---------------------------------------------------------------------------|
E|--5-3-5-3-5-3-5-3-5-3-5-0-1-0-1-0------------------------------------------|

bridge pt 2
e|-7h8---8p7-----------------------------------------------------------------|
B|-----8-----8----8/10-------------------------------------------------------|
G|--------------5------------------------------------------------------------|
D|---------------------------------------------------------------------------|
A|---------------------------------------------------------------------------|
E|---------------------------------------------------------------------------|

solo (only the back chords. dont know solo) (no timeing shown)
e|---------------------------------------------------------------------------|
B|---------------------------------------------------------------------------|
G|----5/7--9----5----------5/7-9-10-10-10-10-10-10-10-10-9-9-9-5-5-5-4-4-----|
D|-7--5/7--9-7--5-5--3---7-5/7-9-10-10-10-10-10-10-10-10-9-9-9-5-5-5-4-4-----|
A|-7--3/5--7-7--3-5--3---7-3/5-7-8--8--8--8--8--8--8--8--7-7-7-3-3-3-2-2-----|
E|-5---------5----3--1---5---------------------------------------------------|


| /  slide up
| \  slide down
| h  hammer-on
| p  pull-off
| ~  vibrato
| +  harmonic
| x  Mute note
===============================================================================
Добавлено: 20.06.2012
Другие материалы по этой песне:
  • Аккорды и текст

Страница создана 20.06.2012
http://primanota.ru/buckethead/checkerboard-incision-chords.htm
Привет, Гость.
Предлагаем пройти революционный курс по гитаре.
Подарок от PrimaNota.Ru, забирай!